  0
SECTION
  2
HEADER
  9
$ACADVER
  1
AC1012
  9
$DWGCODEPAGE
  3
ansi_932
  9
$INSBASE
 10
0.0
 20
0.0
 30
0.0
  9
$EXTMIN
 10
0.0
 20
0.0
 30
0.0
  9
$EXTMAX
 10
183.061639
 20
89.571719
 30
0.0
  9
$LIMMIN
 10
0.0
 20
0.0
  9
$LIMMAX
 10
183.061639
 20
89.571719
  9
$ORTHOMODE
 70
     0
  9
$REGENMODE
 70
     1
  9
$FILLMODE
 70
     1
  9
$QTEXTMODE
 70
     0
  9
$MIRRTEXT
 70
     1
  9
$DRAGMODE
 70
     2
  9
$LTSCALE
 40
1.0
  9
$OSMODE
 70
    37
  9
$ATTMODE
 70
     1
  9
$TEXTSIZE
 40
0.2
  9
$TRACEWID
 40
0.05
  9
$TEXTSTYLE
  7
ED_VECTOR
  9
$CLAYER
  8
0
  9
$CELTYPE
  6
BYLAYER
  9
$CECOLOR
 62
   256
  9
$CELTSCALE
 40
1.0
  9
$DELOBJ
 70
     1
  9
$DISPSILH
 70
     0
  9
$DIMSCALE
 40
1.0
  9
$DIMASZ
 40
3.0
  9
$DIMEXO
 40
1.0
  9
$DIMDLI
 40
10.0
  9
$DIMRND
 40
0.0
  9
$DIMDLE
 40
5.0
  9
$DIMEXE
 40
1.0
  9
$DIMTP
 40
0.0
  9
$DIMTM
 40
0.0
  9
$DIMTXT
 40
4.0
  9
$DIMCEN
 40
2.5
  9
$DIMTSZ
 40
0.0
  9
$DIMTOL
 70
     0
  9
$DIMLIM
 70
     0
  9
$DIMTIH
 70
     0
  9
$DIMTOH
 70
     0
  9
$DIMSE1
 70
     0
  9
$DIMSE2
 70
     0
  9
$DIMTAD
 70
     1
  9
$DIMZIN
 70
     8
  9
$DIMBLK
  1

  9
$DIMASO
 70
     1
  9
$DIMSHO
 70
     1
  9
$DIMPOST
  1

  9
$DIMAPOST
  1

  9
$DIMALT
 70
     0
  9
$DIMALTD
 70
     3
  9
$DIMALTF
 40
0.03937
  9
$DIMLFAC
 40
1.0
  9
$DIMTOFL
 70
     1
  9
$DIMTVP
 40
0.0
  9
$DIMTIX
 70
     0
  9
$DIMSOXD
 70
     0
  9
$DIMSAH
 70
     1
  9
$DIMBLK1
  1
EDTIP_ARROW_S
  9
$DIMBLK2
  1
EDTIP_ARROW_E
  9
$DIMSTYLE
  2
EDDIMINFO
  9
$DIMCLRD
 70
     7
  9
$DIMCLRE
 70
     7
  9
$DIMCLRT
 70
     7
  9
$DIMTFAC
 40
1.0
  9
$DIMGAP
 40
1.0
  9
$DIMJUST
 70
     0
  9
$DIMSD1
 70
     0
  9
$DIMSD2
 70
     0
  9
$DIMTOLJ
 70
     0
  9
$DIMTZIN
 70
     8
  9
$DIMALTZ
 70
     0
  9
$DIMALTTZ
 70
     0
  9
$DIMFIT
 70
     3
  9
$DIMUPT
 70
     0
  9
$DIMUNIT
 70
     2
  9
$DIMDEC
 70
     2
  9
$DIMTDEC
 70
     2
  9
$DIMALTU
 70
     2
  9
$DIMALTTD
 70
     3
  9
$DIMTXSTY
  7
ED_VECTOR
  9
$DIMAUNIT
 70
     0
  9
$LUNITS
 70
     2
  9
$LUPREC
 70
     4
  9
$SKETCHINC
 40
0.1
  9
$FILLETRAD
 40
0.5
  9
$AUNITS
 70
     0
  9
$AUPREC
 70
     0
  9
$MENU
  1
.
  9
$ELEVATION
 40
0.0
  9
$PELEVATION
 40
0.0
  9
$THICKNESS
 40
0.0
  9
$LIMCHECK
 70
     0
  9
$CHAMFERA
 40
0.5
  9
$CHAMFERB
 40
0.5
  9
$CHAMFERC
 40
1.0
  9
$CHAMFERD
 40
0.0
  9
$SKPOLY
 70
     0
  9
$TDCREATE
 40
2456063.663499143
  9
$TDUPDATE
 40
2456063.663499155
  9
$TDINDWG
 40
0.0000000116
  9
$TDUSRTIMER
 40
0.0000000116
  9
$USRTIMER
 70
     1
  9
$ANGBASE
 50
0.0
  9
$ANGDIR
 70
     0
  9
$PDMODE
 70
     0
  9
$PDSIZE
 40
0.0
  9
$PLINEWID
 40
0.0
  9
$COORDS
 70
     1
  9
$SPLFRAME
 70
     0
  9
$SPLINETYPE
 70
     6
  9
$SPLINESEGS
 70
     8
  9
$ATTDIA
 70
     0
  9
$ATTREQ
 70
     1
  9
$HANDLING
 70
     1
  9
$HANDSEED
  5
40D
  9
$SURFTAB1
 70
     6
  9
$SURFTAB2
 70
     6
  9
$SURFTYPE
 70
     6
  9
$SURFU
 70
     6
  9
$SURFV
 70
     6
  9
$UCSNAME
  2

  9
$UCSORG
 10
0.0
 20
0.0
 30
0.0
  9
$UCSXDIR
 10
1.0
 20
0.0
 30
0.0
  9
$UCSYDIR
 10
0.0
 20
1.0
 30
0.0
  9
$PUCSNAME
  2

  9
$PUCSORG
 10
0.0
 20
0.0
 30
0.0
  9
$PUCSXDIR
 10
1.0
 20
0.0
 30
0.0
  9
$PUCSYDIR
 10
0.0
 20
1.0
 30
0.0
  9
$USERI1
 70
     0
  9
$USERI2
 70
     0
  9
$USERI3
 70
     0
  9
$USERI4
 70
     0
  9
$USERI5
 70
     0
  9
$USERR1
 40
0.0
  9
$USERR2
 40
0.0
  9
$USERR3
 40
0.0
  9
$USERR4
 40
0.0
  9
$USERR5
 40
0.0
  9
$WORLDVIEW
 70
     1
  9
$SHADEDGE
 70
     3
  9
$SHADEDIF
 70
    70
  9
$TILEMODE
 70
     1
  9
$MAXACTVP
 70
    64
  9
$PINSBASE
 10
0.0
 20
0.0
 30
0.0
  9
$PLIMCHECK
 70
     0
  9
$PEXTMIN
 10
1.000000E+20
 20
1.000000E+20
 30
1.000000E+20
  9
$PEXTMAX
 10
-1.000000E+20
 20
-1.000000E+20
 30
-1.000000E+20
  9
$PLIMMIN
 10
0.0
 20
0.0
  9
$PLIMMAX
 10
12.0
 20
9.0
  9
$UNITMODE
 70
     0
  9
$VISRETAIN
 70
     1
  9
$PLINEGEN
 70
     0
  9
$PSLTSCALE
 70
     1
  9
$TREEDEPTH
 70
  3020
  9
$PICKSTYLE
 70
     1
  9
$CMLSTYLE
  2
STANDARD
  9
$CMLJUST
 70
     0
  9
$CMLSCALE
 40
1.0
  9
$SAVEIMAGES
 70
     1
  0
ENDSEC
  0
SECTION
  2
CLASSES
  0
CLASS
  1
ACDBDICTIONARYWDFLT
  2
AcDbDictionaryWithDefault
  3
ObjectDBX Classes
 90
    32768
280
     0
281
     0
  0
CLASS
  1
XRECORD
  2
AcDbXrecord
  3
AutoCAD 2000
 90
    32768
280
     0
281
     0
  0
CLASS
  1
LWPOLYLINE
  2
AcDbPolyline
  3
AutoCAD 2000
 90
    32768
280
     0
281
     1
  0
CLASS
  1
HATCH
  2
AcDbHatch
  3
AutoCAD 2000
 90
    32768
280
     0
281
     1
  0
CLASS
  1
ACDBPLACEHOLDER
  2
AcDbPlaceHolder
  3
ObjectDBX Classes
 90
        0
280
     0
281
     0
  0
CLASS
  1
LAYOUT
  2
AcDbLayout
  3
ObjectDBX Classes
 90
        0
280
     0
281
     0
  0
ENDSEC
  0
SECTION
  2
TABLES
  0
TABLE
  2
VPORT
  5
8
330
0
100
AcDbSymbolTable
 70
     1
  0
VPORT
  5
29
330
8
100
AcDbSymbolTableRecord
100
AcDbViewportTableRecord
  2
*ACTIVE
 70
     0
 10
0.0
 20
0.0
 11
1.0
 21
1.0
 12
91.53082
 22
44.78586
 13
0.0
 23
0.0
 14
0.5
 24
0.5
 15
0.5
 25
0.5
 16
0.0
 26
0.0
 36
1.0
 17
0.0
 27
0.0
 37
0.0
 40
89.571719
 41
2.043744
 42
50.0
 43
0.0
 44
0.0
 50
0.0
 51
0.0
 71
     0
 72
   100
 73
     1
 74
     3
 75
     0
 76
     0
 77
     0
 78
     0
  0
ENDTAB
  0
TABLE
  2
LTYPE
  5
5
330
0
100
AcDbSymbolTable
 70
     5
  0
LTYPE
  5
14
330
5
100
AcDbSymbolTableRecord
100
AcDbLinetypeTableRecord
  2
BYBLOCK
 70
     0
  3

 72
    65
 73
     0
 40
0.0
  0
LTYPE
  5
15
330
5
100
AcDbSymbolTableRecord
100
AcDbLinetypeTableRecord
  2
BYLAYER
 70
     0
  3

 72
    65
 73
     0
 40
0.0
  0
LTYPE
  5
16
330
5
100
AcDbSymbolTableRecord
100
AcDbLinetypeTableRecord
  2
CONTINUOUS
 70
     0
  3
--------------------
 72
    65
 73
     0
 40
0.0
  0
LTYPE
  5
2A
330
5
100
AcDbSymbolTableRecord
100
AcDbLinetypeTableRecord
  2
DASHED
 70
     0
  3
- - - - - - - - - - -
 72
    65
 73
     2
 40
19.1
 49
12.7
 74
     0
 49
-6.4
 74
     0
  0
LTYPE
  5
2B
330
5
100
AcDbSymbolTableRecord
100
AcDbLinetypeTableRecord
  2
CENTER
 70
     0
  3
- ･ - ･ - ･ - ･ - ･ - ･ - ･ - ･ - ･ - ･ -
 72
    65
 73
     4
 40
51.0
 49
31.8
 74
     0
 49
-6.4
 74
     0
 49
6.4
 74
     0
 49
-6.4
 74
     0
  0
LTYPE
  5
2C
330
5
100
AcDbSymbolTableRecord
100
AcDbLinetypeTableRecord
  2
PHANTOM
 70
     0
  3
- ･ ･ - ･ ･ - ･ ･ - ･ ･ - ･ ･ - ･ ･ - ･ ･ - 
 72
    65
 73
     6
 40
63.8
 49
31.8
 74
     0
 49
-6.4
 74
     0
 49
6.4
 74
     0
 49
-6.4
 74
     0
 49
6.4
 74
     0
 49
-6.4
 74
     0
  0
LTYPE
  5
2D
330
5
100
AcDbSymbolTableRecord
100
AcDbLinetypeTableRecord
  2
DOT
 70
     0
  3
・・・・・・・・・・・・・・・
 72
    65
 73
     2
 40
6.5
 49
0.1
 74
     0
 49
-6.4
 74
     0
  0
ENDTAB
  0
TABLE
  2
LAYER
  5
2
330
0
100
AcDbSymbolTable
 70
    16
  0
LAYER
  5
10
330
2
100
AcDbSymbolTableRecord
100
AcDbLayerTableRecord
  2
0
 70
     0
 62
     7
  6
CONTINUOUS
  0
LAYER
  5
2E
330
2
100
AcDbSymbolTableRecord
100
AcDbLayerTableRecord
  2
CSLAYER2
 70
     0
 62
     7
  6
CONTINUOUS
  0
ENDTAB
  0
TABLE
  2
STYLE
  5
3
330
0
100
AcDbSymbolTable
 70
     2
  0
STYLE
  5
11
330
3
100
AcDbSymbolTableRecord
100
AcDbTextStyleTableRecord
  2
STANDARD
 70
     0
 40
0.0
 41
1.0
 50
0.0
 71
     0
 42
0.2
  3
txt
  4

  0
STYLE
  5
3D
330
3
100
AcDbSymbolTableRecord
100
AcDbTextStyleTableRecord
  2
ED_VECTOR
 70
     0
 40
0.0
 41
1.0
 50
0.0
 71
     0
 42
0.2
  3
MONOTXT.SHX
  4
BIGFONT.SHX
  0
ENDTAB
  0
TABLE
  2
VIEW
  5
6
330
0
100
AcDbSymbolTable
 70
     0
  0
ENDTAB
  0
TABLE
  2
UCS
  5
7
330
0
100
AcDbSymbolTable
 70
     0
  0
ENDTAB
  0
TABLE
  2
APPID
  5
9
330
0
100
AcDbSymbolTable
 70
     1
  0
APPID
  5
12
330
9
100
AcDbSymbolTableRecord
100
AcDbRegAppTableRecord
  2
ACAD
 70
     0
  0
ENDTAB
  0
TABLE
  2
DIMSTYLE
  5
A
330
0
100
AcDbSymbolTable
 70
     2
  0
DIMSTYLE
105
27
330
A
100
AcDbSymbolTableRecord
100
AcDbDimStyleTableRecord
  2
STANDARD
 70
     0
  3

  4

  5

  6

  7

 40
1.0
 41
0.18
 42
0.0625
 43
0.38
 44
0.18
 45
0.0
 46
0.0
 47
0.0
 48
0.0
140
0.18
141
0.09
142
0.0
143
25.4
144
1.0
145
0.0
146
1.0
147
0.09
 71
     0
 72
     0
 73
     1
 74
     1
 75
     0
 76
     0
 77
     0
 78
     0
170
     0
171
     2
172
     0
173
     0
174
     0
175
     0
176
     0
177
     0
178
     0
270
     2
271
     4
272
     4
273
     2
274
     2
340
11
275
     0
280
     0
281
     0
282
     0
283
     1
284
     0
285
     0
286
     0
287
     3
288
     0
  0
DIMSTYLE
105
6E
330
A
100
AcDbSymbolTableRecord
100
AcDbDimStyleTableRecord
  2
EDDIMINFO
 70
     0
  3

  4

  5

  6
EDTIP_ARROW_S
  7
EDTIP_ARROW_E
 40
1.0
 41
3.0
 42
1.0
 43
10.0
 44
1.0
 45
0.0
 46
5.0
 47
0.0
 48
0.0
140
4.0
141
2.5
142
0.0
143
0.03937
144
1.0
145
0.0
146
1.0
147
1.0
 71
     0
 72
     0
 73
     0
 74
     0
 75
     0
 76
     0
 77
     1
 78
     8
170
     0
171
     3
172
     1
173
     1
174
     0
175
     0
176
     7
177
     7
178
     7
179
     2
270
     2
271
     2
272
     2
273
     2
274
     3
340
3D
275
     0
280
     0
281
     0
282
     0
283
     0
284
     8
285
     0
286
     0
287
     3
288
     0
  0
ENDTAB
  0
TABLE
  2
BLOCK_RECORD
  5
1
330
0
100
AcDbSymbolTable
 70
    23
  0
BLOCK_RECORD
  5
1F
330
1
100
AcDbSymbolTableRecord
100
AcDbBlockTableRecord
  2
*MODEL_SPACE
  0
BLOCK_RECORD
  5
1B
330
1
100
AcDbSymbolTableRecord
100
AcDbBlockTableRecord
  2
*PAPER_SPACE
  0
BLOCK_RECORD
  5
3E
330
1
100
AcDbSymbolTableRecord
100
AcDbBlockTableRecord
  2
EDTIP_ARROW_S
  0
BLOCK_RECORD
  5
44
330
1
100
AcDbSymbolTableRecord
100
AcDbBlockTableRecord
  2
EDTIP_ARROW_E
  0
BLOCK_RECORD
  5
4A
330
1
100
AcDbSymbolTableRecord
100
AcDbBlockTableRecord
  2
EDTIP_BLACKDOT_S
  0
BLOCK_RECORD
  5
50
330
1
100
AcDbSymbolTableRecord
100
AcDbBlockTableRecord
  2
EDTIP_BLACKDOT_E
  0
BLOCK_RECORD
  5
56
330
1
100
AcDbSymbolTableRecord
100
AcDbBlockTableRecord
  2
EDTIP_ARCHITECT_S
  0
BLOCK_RECORD
  5
5C
330
1
100
AcDbSymbolTableRecord
100
AcDbBlockTableRecord
  2
EDTIP_ARCHITECT_E
  0
BLOCK_RECORD
  5
62
330
1
100
AcDbSymbolTableRecord
100
AcDbBlockTableRecord
  2
EDTIP_CIVIL_S
  0
BLOCK_RECORD
  5
68
330
1
100
AcDbSymbolTableRecord
100
AcDbBlockTableRecord
  2
EDTIP_CIVIL_E
  0
BLOCK_RECORD
  5
DA
330
1
100
AcDbSymbolTableRecord
100
AcDbBlockTableRecord
  2
BLKF011
  0
BLOCK_RECORD
  5
10D
330
1
100
AcDbSymbolTableRecord
100
AcDbBlockTableRecord
  2
BLKF012
  0
BLOCK_RECORD
  5
24B
330
1
100
AcDbSymbolTableRecord
100
AcDbBlockTableRecord
  2
BLKF013
  0
BLOCK_RECORD
  5
261
330
1
100
AcDbSymbolTableRecord
100
AcDbBlockTableRecord
  2
BLKF014
  0
BLOCK_RECORD
  5
274
330
1
100
AcDbSymbolTableRecord
100
AcDbBlockTableRecord
  2
BLKF015
  0
BLOCK_RECORD
  5
312
330
1
100
AcDbSymbolTableRecord
100
AcDbBlockTableRecord
  2
BLKF016
  0
BLOCK_RECORD
  5
320
330
1
100
AcDbSymbolTableRecord
100
AcDbBlockTableRecord
  2
BLKF017
  0
BLOCK_RECORD
  5
3A0
330
1
100
AcDbSymbolTableRecord
100
AcDbBlockTableRecord
  2
BLKF018
  0
BLOCK_RECORD
  5
3AE
330
1
100
AcDbSymbolTableRecord
100
AcDbBlockTableRecord
  2
BLKF019
  0
BLOCK_RECORD
  5
3C2
330
1
100
AcDbSymbolTableRecord
100
AcDbBlockTableRecord
  2
BLKF020
  0
BLOCK_RECORD
  5
3D3
330
1
100
AcDbSymbolTableRecord
100
AcDbBlockTableRecord
  2
BLKF021
  0
BLOCK_RECORD
  5
3E1
330
1
100
AcDbSymbolTableRecord
100
AcDbBlockTableRecord
  2
BLKF022
  0
BLOCK_RECORD
  5
3EF
330
1
100
AcDbSymbolTableRecord
100
AcDbBlockTableRecord
  2
BLKF023
  0
BLOCK_RECORD
  5
3FF
330
1
100
AcDbSymbolTableRecord
100
AcDbBlockTableRecord
  2
BLKF024
  0
ENDTAB
  0
ENDSEC
  0
SECTION
  2
BLOCKS
  0
BLOCK
  5
20
330
1F
100
AcDbEntity
  8
0
100
AcDbBlockBegin
  2
*MODEL_SPACE
 70
     0
 71
     0
 10
0.0
 20
0.0
 30
0.0
  3
*MODEL_SPACE
  1

  0
ENDBLK
  5
21
330
1F
100
AcDbEntity
  8
0
100
AcDbBlockEnd
  0
BLOCK
  5
1C
330
1B
100
AcDbEntity
 67
     1
  8
0
100
AcDbBlockBegin
  2
*PAPER_SPACE
 70
     0
 71
     0
 10
0.0
 20
0.0
 30
0.0
  3
*PAPER_SPACE
  1

  0
ENDBLK
  5
1D
330
1B
100
AcDbEntity
 67
     1
  8
0
100
AcDbBlockEnd
  0
BLOCK
  5
3F
330
3E
100
AcDbEntity
  8
0
100
AcDbBlockBegin
  2
EDTIP_ARROW_S
 70
     0
 71
     0
 10
0.0
 20
0.0
 30
0.0
  3
EDTIP_ARROW_S
  1

  0
LINE
  5
41
330
3E
100
AcDbEntity
  8
0
  6
CONTINUOUS
 62
     0
100
AcDbLine
 10
0.0
 20
0.0
 30
0.0
 11
-1.0
 21
0.0
 31
0.0
  0
LINE
  5
42
330
3E
100
AcDbEntity
  8
0
  6
CONTINUOUS
 62
     0
100
AcDbLine
 10
0.0
 20
0.0
 30
0.0
 11
-0.965926
 21
0.258819
 31
0.0
  0
LINE
  5
43
330
3E
100
AcDbEntity
  8
0
  6
CONTINUOUS
 62
     0
100
AcDbLine
 10
0.0
 20
0.0
 30
0.0
 11
-0.965926
 21
-0.258819
 31
0.0
  0
ENDBLK
  5
40
330
3E
100
AcDbEntity
  8
0
100
AcDbBlockEnd
  0
BLOCK
  5
45
330
44
100
AcDbEntity
  8
0
100
AcDbBlockBegin
  2
EDTIP_ARROW_E
 70
     0
 71
     0
 10
0.0
 20
0.0
 30
0.0
  3
EDTIP_ARROW_E
  1

  0
LINE
  5
47
330
44
100
AcDbEntity
  8
0
  6
CONTINUOUS
 62
     0
100
AcDbLine
 10
0.0
 20
0.0
 30
0.0
 11
-1.0
 21
0.0
 31
0.0
  0
LINE
  5
48
330
44
100
AcDbEntity
  8
0
  6
CONTINUOUS
 62
     0
100
AcDbLine
 10
0.0
 20
0.0
 30
0.0
 11
-0.965926
 21
-0.258819
 31
0.0
  0
LINE
  5
49
330
44
100
AcDbEntity
  8
0
  6
CONTINUOUS
 62
     0
100
AcDbLine
 10
0.0
 20
0.0
 30
0.0
 11
-0.965926
 21
0.258819
 31
0.0
  0
ENDBLK
  5
46
330
44
100
AcDbEntity
  8
0
100
AcDbBlockEnd
  0
BLOCK
  5
4B
330
4A
100
AcDbEntity
  8
0
100
AcDbBlockBegin
  2
EDTIP_BLACKDOT_S
 70
     0
 71
     0
 10
0.0
 20
0.0
 30
0.0
  3
EDTIP_BLACKDOT_S
  1

  0
LINE
  5
4D
330
4A
100
AcDbEntity
  8
0
  6
CONTINUOUS
 62
     0
100
AcDbLine
 10
0.0
 20
0.0
 30
0.0
 11
-1.0
 21
0.0
 31
0.0
  0
CIRCLE
  5
4E
330
4A
100
AcDbEntity
  8
0
  6
CONTINUOUS
 62
     0
100
AcDbCircle
 10
0.0
 20
0.0
 30
0.0
 40
0.5
  0
CIRCLE
  5
4F
330
4A
100
AcDbEntity
  8
0
  6
CONTINUOUS
 62
     0
100
AcDbCircle
 10
0.0
 20
0.0
 30
0.0
 40
0.25
  0
ENDBLK
  5
4C
330
4A
100
AcDbEntity
  8
0
100
AcDbBlockEnd
  0
BLOCK
  5
51
330
50
100
AcDbEntity
  8
0
100
AcDbBlockBegin
  2
EDTIP_BLACKDOT_E
 70
     0
 71
     0
 10
0.0
 20
0.0
 30
0.0
  3
EDTIP_BLACKDOT_E
  1

  0
LINE
  5
53
330
50
100
AcDbEntity
  8
0
  6
CONTINUOUS
 62
     0
100
AcDbLine
 10
0.0
 20
0.0
 30
0.0
 11
-1.0
 21
0.0
 31
0.0
  0
CIRCLE
  5
54
330
50
100
AcDbEntity
  8
0
  6
CONTINUOUS
 62
     0
100
AcDbCircle
 10
0.0
 20
0.0
 30
0.0
 40
0.5
  0
CIRCLE
  5
55
330
50
100
AcDbEntity
  8
0
  6
CONTINUOUS
 62
     0
100
AcDbCircle
 10
0.0
 20
0.0
 30
0.0
 40
0.25
  0
ENDBLK
  5
52
330
50
100
AcDbEntity
  8
0
100
AcDbBlockEnd
  0
BLOCK
  5
57
330
56
100
AcDbEntity
  8
0
100
AcDbBlockBegin
  2
EDTIP_ARCHITECT_S
 70
     0
 71
     0
 10
0.0
 20
0.0
 30
0.0
  3
EDTIP_ARCHITECT_S
  1

  0
LINE
  5
59
330
56
100
AcDbEntity
  8
0
  6
CONTINUOUS
 62
     0
100
AcDbLine
 10
0.0
 20
0.0
 30
0.0
 11
-1.0
 21
0.0
 31
0.0
  0
LINE
  5
5A
330
56
100
AcDbEntity
  8
0
  6
CONTINUOUS
 62
     0
100
AcDbLine
 10
0.0
 20
0.0
 30
0.0
 11
-0.707107
 21
-0.707107
 31
0.0
  0
LINE
  5
5B
330
56
100
AcDbEntity
  8
0
  6
CONTINUOUS
 62
     0
100
AcDbLine
 10
0.0
 20
0.0
 30
0.0
 11
0.707107
 21
0.707107
 31
0.0
  0
ENDBLK
  5
58
330
56
100
AcDbEntity
  8
0
100
AcDbBlockEnd
  0
BLOCK
  5
5D
330
5C
100
AcDbEntity
  8
0
100
AcDbBlockBegin
  2
EDTIP_ARCHITECT_E
 70
     0
 71
     0
 10
0.0
 20
0.0
 30
0.0
  3
EDTIP_ARCHITECT_E
  1

  0
LINE
  5
5F
330
5C
100
AcDbEntity
  8
0
  6
CONTINUOUS
 62
     0
100
AcDbLine
 10
0.0
 20
0.0
 30
0.0
 11
-1.0
 21
0.0
 31
0.0
  0
LINE
  5
60
330
5C
100
AcDbEntity
  8
0
  6
CONTINUOUS
 62
     0
100
AcDbLine
 10
0.0
 20
0.0
 30
0.0
 11
-0.707107
 21
-0.707107
 31
0.0
  0
LINE
  5
61
330
5C
100
AcDbEntity
  8
0
  6
CONTINUOUS
 62
     0
100
AcDbLine
 10
0.0
 20
0.0
 30
0.0
 11
0.707107
 21
0.707107
 31
0.0
  0
ENDBLK
  5
5E
330
5C
100
AcDbEntity
  8
0
100
AcDbBlockEnd
  0
BLOCK
  5
63
330
62
100
AcDbEntity
  8
0
100
AcDbBlockBegin
  2
EDTIP_CIVIL_S
 70
     0
 71
     0
 10
0.0
 20
0.0
 30
0.0
  3
EDTIP_CIVIL_S
  1

  0
LINE
  5
65
330
62
100
AcDbEntity
  8
0
  6
CONTINUOUS
 62
     0
100
AcDbLine
 10
0.0
 20
0.0
 30
0.0
 11
-1.0
 21
0.0
 31
0.0
  0
LINE
  5
66
330
62
100
AcDbEntity
  8
0
  6
CONTINUOUS
 62
     0
100
AcDbLine
 10
0.0
 20
-0.083333
 30
0.0
 11
-1.0
 21
-0.083333
 31
0.0
  0
LINE
  5
67
330
62
100
AcDbEntity
  8
0
  6
CONTINUOUS
 62
     0
100
AcDbLine
 10
0.0
 20
-0.166667
 30
0.0
 11
-1.0
 21
-0.166667
 31
0.0
  0
ENDBLK
  5
64
330
62
100
AcDbEntity
  8
0
100
AcDbBlockEnd
  0
BLOCK
  5
69
330
68
100
AcDbEntity
  8
0
100
AcDbBlockBegin
  2
EDTIP_CIVIL_E
 70
     0
 71
     0
 10
0.0
 20
0.0
 30
0.0
  3
EDTIP_CIVIL_E
  1

  0
LINE
  5
6B
330
68
100
AcDbEntity
  8
0
  6
CONTINUOUS
 62
     0
100
AcDbLine
 10
0.0
 20
0.0
 30
0.0
 11
-1.0
 21
0.0
 31
0.0
  0
LINE
  5
6C
330
68
100
AcDbEntity
  8
0
  6
CONTINUOUS
 62
     0
100
AcDbLine
 10
0.0
 20
0.083333
 30
0.0
 11
-1.0
 21
0.083333
 31
0.0
  0
LINE
  5
6D
330
68
100
AcDbEntity
  8
0
  6
CONTINUOUS
 62
     0
100
AcDbLine
 10
0.0
 20
0.166667
 30
0.0
 11
-1.0
 21
0.166667
 31
0.0
  0
ENDBLK
  5
6A
330
68
100
AcDbEntity
  8
0
100
AcDbBlockEnd
  0
BLOCK
  5
DB
330
DA
100
AcDbEntity
  8
0
100
AcDbBlockBegin
  2
BLKF011
 70
     0
 71
     0
 10
0.0
 20
0.0
 30
0.0
  3
BLKF011
  1

  0
LINE
  5
DE
330
DA
100
AcDbEntity
  8
0
  6
CONTINUOUS
 62
     7
100
AcDbLine
 10
150.811639
 20
66.459115
 30
0.0
 11
150.770904
 21
66.459327
 31
0.0
  0
LINE
  5
DF
330
DA
100
AcDbEntity
  8
0
  6
CONTINUOUS
 62
     7
100
AcDbLine
 10
150.770904
 20
66.459327
 30
0.0
 11
150.75057
 21
66.45945
 31
0.0
  0
LINE
  5
E0
330
DA
100
AcDbEntity
  8
0
  6
CONTINUOUS
 62
     7
100
AcDbLine
 10
150.75057
 20
66.45945
 30
0.0
 11
150.730274
 21
66.459595
 31
0.0
  0
LINE
  5
E1
330
DA
100
AcDbEntity
  8
0
  6
CONTINUOUS
 62
     7
100
AcDbLine
 10
150.730274
 20
66.459595
 30
0.0
 11
150.71003
 21
66.459768
 31
0.0
  0
LINE
  5
E2
330
DA
100
AcDbEntity
  8
0
  6
CONTINUOUS
 62
     7
100
AcDbLine
 10
150.71003
 20
66.459768
 30
0.0
 11
150.68985
 21
66.459976
 31
0.0
  0
LINE
  5
E3
330
DA
100
AcDbEntity
  8
0
  6
CONTINUOUS
 62
     7
100
AcDbLine
 10
150.68985
 20
66.459976
 30
0.0
 11
150.669748
 21
66.460227
 31
0.0
  0
LINE
  5
E4
330
DA
100
AcDbEntity
  8
0
  6
CONTINUOUS
 62
     7
100
AcDbLine
 10
150.669748
 20
66.460227
 30
0.0
 11
150.649737
 21
66.460527
 31
0.0
  0
LINE
  5
E5
330
DA
100
AcDbEntity
  8
0
  6
CONTINUOUS
 62
     7
100
AcDbLine
 10
150.649737
 20
66.460527
 30
0.0
 11
150.630326
 21
66.460872
 31
0.0
  0
LINE
  5
E6
330
DA
100
AcDbEntity
  8
0
  6
CONTINUOUS
 62
     7
100
AcDbLine
 10
150.630326
 20
66.460872
 30
0.0
 11
150.611027
 21
66.461269
 31
0.0
  0
LINE
  5
E7
330
DA
100
AcDbEntity
  8
0
  6
CONTINUOUS
 62
     7
100
AcDbLine
 10
150.611027
 20
66.461269
 30
0.0
 11
150.591855
 21
66.461713
 31
0.0
  0
LINE
  5
E8
330
DA
100
AcDbEntity
  8
0
  6
CONTINUOUS
 62
     7
100
AcDbLine
 10
150.591855
 20
66.461713
 30
0.0
 11
150.572824
 21
66.462203
 31
0.0
  0
LINE
  5
E9
330
DA
100
AcDbEntity
  8
0
  6
CONTINUOUS
 62
     7
100
AcDbLine
 10
150.572824
 20
66.462203
 30
0.0
 11
150.553949
 21
66.462736
 31
0.0
  0
LINE
  5
EA
330
DA
100
AcDbEntity
  8
0
  6
CONTINUOUS
 62
     7
100
AcDbLine
 10
150.553949
 20
66.462736
 30
0.0
 11
150.535242
 21
66.463308
 31
0.0
  0
LINE
  5
EB
330
DA
100
AcDbEntity
  8
0
  6
CONTINUOUS
 62
     7
100
AcDbLine
 10
150.535242
 20
66.463308
 30
0.0
 11
150.516719
 21
66.463918
 31
0.0
  0
LINE
  5
EC
330
DA
100
AcDbEntity
  8
0
  6
CONTINUOUS
 62
     7
100
AcDbLine
 10
150.516719
 20
66.463918
 30
0.0
 11
150.498394
 21
66.464562
 31
0.0
  0
LINE
  5
ED
330
DA
100
AcDbEntity
  8
0
  6
CONTINUOUS
 62
     7
100
AcDbLine
 10
150.498394
 20
66.464562
 30
0.0
 11
150.479514
 21
66.465267
 31
0.0
  0
LINE
  5
EE
330
DA
100
AcDbEntity
  8
0
  6
CONTINUOUS
 62
     7
100
AcDbLine
 10
150.479514
 20
66.465267
 30
0.0
 11
150.460869
 21
66.466004
 31
0.0
  0
LINE
  5
EF
330
DA
100
AcDbEntity
  8
0
  6
CONTINUOUS
 62
     7
100
AcDbLine
 10
150.460869
 20
66.466004
 30
0.0
 11
150.442465
 21
66.466771
 31
0.0
  0
LINE
  5
F0
330
DA
100
AcDbEntity
  8
0
  6
CONTINUOUS
 62
     7
100
AcDbLine
 10
150.442465
 20
66.466771
 30
0.0
 11
150.424306
 21
66.467564
 31
0.0
  0
LINE
  5
F1
330
DA
100
AcDbEntity
  8
0
  6
CONTINUOUS
 62
     7
100
AcDbLine
 10
150.424306
 20
66.467564
 30
0.0
 11
150.406398
 21
66.468382
 31
0.0
  0
LINE
  5
F2
330
DA
100
AcDbEntity
  8
0
  6
CONTINUOUS
 62
     7
100
AcDbLine
 10
150.406398
 20
66.468382
 30
0.0
 11
150.388745
 21
66.469222
 31
0.0
  0
LINE
  5
F3
330
DA
100
AcDbEntity
  8
0
  6
CONTINUOUS
 62
     7
100
AcDbLine
 10
150.388745
 20
66.469222
 30
0.0
 11
150.371353
 21
66.470081
 31
0.0
  0
LINE
  5
F4
330
DA
100
AcDbEntity
  8
0
  6
CONTINUOUS
 62
     7
100
AcDbLine
 10
150.371353
 20
66.470081
 30
0.0
 11
150.354227
 21
66.470958
 31
0.0
  0
LINE
  5
F5
330
DA
100
AcDbEntity
  8
0
  6
CONTINUOUS
 62
     7
100
AcDbLine
 10
150.354227
 20
66.470958
 30
0.0
 11
150.337371
 21
66.471849
 31
0.0
  0
LINE
  5
F6
330
DA
100
AcDbEntity
  8
0
  6
CONTINUOUS
 62
     7
100
AcDbLine
 10
150.337371
 20
66.471849
 30
0.0
 11
150.320792
 21
66.472753
 31
0.0
  0
LINE
  5
F7
330
DA
100
AcDbEntity
  8
0
  6
CONTINUOUS
 62
     7
100
AcDbLine
 10
150.320792
 20
66.472753
 30
0.0
 11
150.304493
 21
66.473666
 31
0.0
  0
LINE
  5
F8
330
DA
100
AcDbEntity
  8
0
  6
CONTINUOUS
 62
     7
100
AcDbLine
 10
150.304493
 20
66.473666
 30
0.0
 11
150.288481
 21
66.474586
 31
0.0
  0
LINE
  5
F9
330
DA
100
AcDbEntity
  8
0
  6
CONTINUOUS
 62
     7
100
AcDbLine
 10
150.288481
 20
66.474586
 30
0.0
 11
150.27276
 21
66.475512
 31
0.0
  0
LINE
  5
FA
330
DA
100
AcDbEntity
  8
0
  6
CONTINUOUS
 62
     7
100
AcDbLine
 10
150.27276
 20
66.475512
 30
0.0
 11
150.257335
 21
66.47644
 31
0.0
  0
LINE
  5
FB
330
DA
100
AcDbEntity
  8
0
  6
CONTINUOUS
 62
     7
100
AcDbLine
 10
150.257335
 20
66.47644
 30
0.0
 11
150.242211
 21
66.477367
 31
0.0
  0
LINE
  5
FC
330
DA
100
AcDbEntity
  8
0
  6
CONTINUOUS
 62
     7
100
AcDbLine
 10
150.242211
 20
66.477367
 30
0.0
 11
150.227394
 21
66.478293
 31
0.0
  0
LINE
  5
FD
330
DA
100
AcDbEntity
  8
0
  6
CONTINUOUS
 62
     7
100
AcDbLine
 10
150.227394
 20
66.478293
 30
0.0
 11
150.212848
 21
66.479216
 31
0.0
  0
LINE
  5
FE
330
DA
100
AcDbEntity
  8
0
  6
CONTINUOUS
 62
     7
100
AcDbLine
 10
150.212848
 20
66.479216
 30
0.0
 11
150.198627
 21
66.480132
 31
0.0
  0
LINE
  5
FF
330
DA
100
AcDbEntity
  8
0
  6
CONTINUOUS
 62
     7
100
AcDbLine
 10
150.198627
 20
66.480132
 30
0.0
 11
150.184742
 21
66.481041
 31
0.0
  0
LINE
  5
100
330
DA
100
AcDbEntity
  8
0
  6
CONTINUOUS
 62
     7
100
AcDbLine
 10
150.184742
 20
66.481041
 30
0.0
 11
150.171206
 21
66.48194
 31
0.0
  0
LINE
  5
101
330
DA
100
AcDbEntity
  8
0
  6
CONTINUOUS
 62
     7
100
AcDbLine
 10
150.171206
 20
66.48194
 30
0.0
 11
150.145224
 21
66.483703
 31
0.0
  0
LINE
  5
102
330
DA
100
AcDbEntity
  8
0
  6
CONTINUOUS
 62
     7
100
AcDbLine
 10
150.145224
 20
66.483703
 30
0.0
 11
150.120773
 21
66.485409
 31
0.0
  0
LINE
  5
103
330
DA
100
AcDbEntity
  8
0
  6
CONTINUOUS
 62
     7
100
AcDbLine
 10
150.120773
 20
66.485409
 30
0.0
 11
150.097947
 21
66.487046
 31
0.0
  0
LINE
  5
104
330
DA
100
AcDbEntity
  8
0
  6
CONTINUOUS
 62
     7
100
AcDbLine
 10
150.097947
 20
66.487046
 30
0.0
 11
150.076839
 21
66.488602
 31
0.0
  0
LINE
  5
105
330
DA
100
AcDbEntity
  8
0
  6
CONTINUOUS
 62
     7
100
AcDbLine
 10
150.076839
 20
66.488602
 30
0.0
 11
150.057541
 21
66.490065
 31
0.0
  0
LINE
  5
106
330
DA
100
AcDbEntity
  8
0
  6
CONTINUOUS
 62
     7
100
AcDbLine
 10
150.057541
 20
66.490065
 30
0.0
 11
150.040146
 21
66.491421
 31
0.0
  0
LINE
  5
107
330
DA
100
AcDbEntity
  8
0
  6
CONTINUOUS
 62
     7
100
AcDbLine
 10
150.040146
 20
66.491421
 30
0.0
 11
150.02527
 21
66.492616
 31
0.0
  0
LINE
  5
108
330
DA
100
AcDbEntity
  8
0
  6
CONTINUOUS
 62
     7
100
AcDbLine
 10
150.02527
 20
66.492616
 30
0.0
 11
150.012404
 21
66.493678
 31
0.0
  0
LINE
  5
109
330
DA
100
AcDbEntity
  8
0
  6
CONTINUOUS
 62
     7
100
AcDbLine
 10
150.012404
 20
66.493678
 30
0.0
 11
149.993311
 21
66.495305
 31
0.0
  0
LINE
  5
10A
330
DA
100
AcDbEntity
  8
0
  6
CONTINUOUS
 62
     7
100
AcDbLine
 10
149.993311
 20
66.495305
 30
0.0
 11
149.982905
 21
66.496228
 31
0.0
  0
LINE
  5
10B
330
DA
100
AcDbEntity
  8
0
  6
CONTINUOUS
 62
     7
100
AcDbLine
 10
149.982905
 20
66.496228
 30
0.0
 11
149.977702
 21
66.496718
 31
0.0
  0
ENDBLK
  5
DC
330
DA
100
AcDbEntity
  8
0
100
AcDbBlockEnd
  0
BLOCK
  5
10E
330
10D
100
AcDbEntity
  8
0
100
AcDbBlockBegin
  2
BLKF012
 70
     0
 71
     0
 10
0.0
 20
0.0
 30
0.0
  3
BLKF012
  1

  0
LINE
  5
111
330
10D
100
AcDbEntity
  8
0
  6
CONTINUOUS
 62
     7
100
AcDbLine
 10
151.645552
 20
66.496715
 30
0.0
 11
151.645597
 21
66.496719
 31
0.0
  0
LINE
  5
112
330
10D
100
AcDbEntity
  8
0
  6
CONTINUOUS
 62
     7
100
AcDbLine
 10
151.645597
 20
66.496719
 30
0.0
 11
151.646512
 21
66.496794
 31
0.0
  0
LINE
  5
113
330
10D
100
AcDbEntity
  8
0
  6
CONTINUOUS
 62
     7
100
AcDbLine
 10
151.646512
 20
66.496794
 30
0.0
 11
151.647092
 21
66.49684
 31
0.0
  0
LINE
  5
114
330
10D
100
AcDbEntity
  8
0
  6
CONTINUOUS
 62
     7
100
AcDbLine
 10
151.647092
 20
66.49684
 30
0.0
 11
151.647355
 21
66.496859
 31
0.0
  0
LINE
  5
115
330
10D
100
AcDbEntity
  8
0
  6
CONTINUOUS
 62
     7
100
AcDbLine
 10
151.647355
 20
66.496859
 30
0.0
 11
151.647319
 21
66.496851
 31
0.0
  0
LINE
  5
116
330
10D
100
AcDbEntity
  8
0
  6
CONTINUOUS
 62
     7
100
AcDbLine
 10
151.647319
 20
66.496851
 30
0.0
 11
151.647001
 21
66.496818
 31
0.0
  0
LINE
  5
117
330
10D
100
AcDbEntity
  8
0
  6
CONTINUOUS
 62
     7
100
AcDbLine
 10
151.647001
 20
66.496818
 30
0.0
 11
151.646419
 21
66.496763
 31
0.0
  0
LINE
  5
118
330
10D
100
AcDbEntity
  8
0
  6
CONTINUOUS
 62
     7
100
AcDbLine
 10
151.646419
 20
66.496763
 30
0.0
 11
151.645591
 21
66.496686
 31
0.0
  0
LINE
  5
119
330
10D
100
AcDbEntity
  8
0
  6
CONTINUOUS
 62
     7
100
AcDbLine
 10
151.645591
 20
66.496686
 30
0.0
 11
151.644534
 21
66.496589
 31
0.0
  0
LINE
  5
11A
330
10D
100
AcDbEntity
  8
0
  6
CONTINUOUS
 62
     7
100
AcDbLine
 10
151.644534
 20
66.496589
 30
0.0
 11
151.643266
 21
66.496475
 31
0.0
  0
LINE
  5
11B
330
10D
100
AcDbEntity
  8
0
  6
CONTINUOUS
 62
     7
100
AcDbLine
 10
151.643266
 20
66.496475
 30
0.0
 11
151.641805
 21
66.496343
 31
0.0
  0
LINE
  5
11C
330
10D
100
AcDbEntity
  8
0
  6
CONTINUOUS
 62
     7
100
AcDbLine
 10
151.641805
 20
66.496343
 30
0.0
 11
151.640169
 21
66.496197
 31
0.0
  0
LINE
  5
11D
330
10D
100
AcDbEntity
  8
0
  6
CONTINUOUS
 62
     7
100
AcDbLine
 10
151.640169
 20
66.496197
 30
0.0
 11
151.638374
 21
66.496038
 31
0.0
  0
LINE
  5
11E
330
10D
100
AcDbEntity
  8
0
  6
CONTINUOUS
 62
     7
100
AcDbLine
 10
151.638374
 20
66.496038
 30
0.0
 11
151.63644
 21
66.495867
 31
0.0
  0
LINE
  5
11F
330
10D
100
AcDbEntity
  8
0
  6
CONTINUOUS
 62
     7
100
AcDbLine
 10
151.63644
 20
66.495867
 30
0.0
 11
151.634383
 21
66.495686
 31
0.0
  0
LINE
  5
120
330
10D
100
AcDbEntity
  8
0
  6
CONTINUOUS
 62
     7
100
AcDbLine
 10
151.634383
 20
66.495686
 30
0.0
 11
151.632222
 21
66.495496
 31
0.0
  0
LINE
  5
121
330
10D
100
AcDbEntity
  8
0
  6
CONTINUOUS
 62
     7
100
AcDbLine
 10
151.632222
 20
66.495496
 30
0.0
 11
151.629973
 21
66.4953
 31
0.0
  0
LINE
  5
122
330
10D
100
AcDbEntity
  8
0
  6
CONTINUOUS
 62
     7
100
AcDbLine
 10
151.629973
 20
66.4953
 30
0.0
 11
151.627713
 21
66.495103
 31
0.0
  0
LINE
  5
123
330
10D
100
AcDbEntity
  8
0
  6
CONTINUOUS
 62
     7
100
AcDbLine
 10
151.627713
 20
66.495103
 30
0.0
 11
151.625383
 21
66.494901
 31
0.0
  0
LINE
  5
124
330
10D
100
AcDbEntity
  8
0
  6
CONTINUOUS
 62
     7
100
AcDbLine
 10
151.625383
 20
66.494901
 30
0.0
 11
151.622979
 21
66.494694
 31
0.0
  0
LINE
  5
125
330
10D
100
AcDbEntity
  8
0
  6
CONTINUOUS
 62
     7
100
AcDbLine
 10
151.622979
 20
66.494694
 30
0.0
 11
151.620497
 21
66.494481
 31
0.0
  0
LINE
  5
126
330
10D
100
AcDbEntity
  8
0
  6
CONTINUOUS
 62
     7
100
AcDbLine
 10
151.620497
 20
66.494481
 30
0.0
 11
151.617932
 21
66.494262
 31
0.0
  0
LINE
  5
127
330
10D
100
AcDbEntity
  8
0
  6
CONTINUOUS
 62
     7
100
AcDbLine
 10
151.617932
 20
66.494262
 30
0.0
 11
151.615282
 21
66.494037
 31
0.0
  0
LINE
  5
128
330
10D
100
AcDbEntity
  8
0
  6
CONTINUOUS
 62
     7
100
AcDbLine
 10
151.615282
 20
66.494037
 30
0.0
 11
151.612541
 21
66.493806
 31
0.0
  0
LINE
  5
129
330
10D
100
AcDbEntity
  8
0
  6
CONTINUOUS
 62
     7
100
AcDbLine
 10
151.612541
 20
66.493806
 30
0.0
 11
151.609705
 21
66.493569
 31
0.0
  0
LINE
  5
12A
330
10D
100
AcDbEntity
  8
0
  6
CONTINUOUS
 62
     7
100
AcDbLine
 10
151.609705
 20
66.493569
 30
0.0
 11
151.606771
 21
66.493325
 31
0.0
  0
LINE
  5
12B
330
10D
100
AcDbEntity
  8
0
  6
CONTINUOUS
 62
     7
100
AcDbLine
 10
151.606771
 20
66.493325
 30
0.0
 11
151.603734
 21
66.493074
 31
0.0
  0
LINE
  5
12C
330
10D
100
AcDbEntity
  8
0
  6
CONTINUOUS
 62
     7
100
AcDbLine
 10
151.603734
 20
66.493074
 30
0.0
 11
151.60059
 21
66.492816
 31
0.0
  0
LINE
  5
12D
330
10D
100
AcDbEntity
  8
0
  6
CONTINUOUS
 62
     7
100
AcDbLine
 10
151.60059
 20
66.492816
 30
0.0
 11
151.597335
 21
66.492551
 31
0.0
  0
LINE
  5
12E
330
10D
100
AcDbEntity
  8
0
  6
CONTINUOUS
 62
     7
100
AcDbLine
 10
151.597335
 20
66.492551
 30
0.0
 11
151.593965
 21
66.492279
 31
0.0
  0
LINE
  5
12F
330
10D
100
AcDbEntity
  8
0
  6
CONTINUOUS
 62
     7
100
AcDbLine
 10
151.593965
 20
66.492279
 30
0.0
 11
151.590476
 21
66.491999
 31
0.0
  0
LINE
  5
130
330
10D
100
AcDbEntity
  8
0
  6
CONTINUOUS
 62
     7
100
AcDbLine
 10
151.590476
 20
66.491999
 30
0.0
 11
151.588686
 21
66.491856
 31
0.0
  0
LINE
  5
131
330
10D
100
AcDbEntity
  8
0
  6
CONTINUOUS
 62
     7
100
AcDbLine
 10
151.588686
 20
66.491856
 30
0.0
 11
151.586864
 21
66.491711
 31
0.0
  0
LINE
  5
132
330
10D
100
AcDbEntity
  8
0
  6
CONTINUOUS
 62
     7
100
AcDbLine
 10
151.586864
 20
66.491711
 30
0.0
 11
151.58501
 21
66.491564
 31
0.0
  0
LINE
  5
133
330
10D
100
AcDbEntity
  8
0
  6
CONTINUOUS
 62
     7
100
AcDbLine
 10
151.58501
 20
66.491564
 30
0.0
 11
151.583124
 21
66.491415
 31
0.0
  0
LINE
  5
134
330
10D
100
AcDbEntity
  8
0
  6
CONTINUOUS
 62
     7
100
AcDbLine
 10
151.583124
 20
66.491415
 30
0.0
 11
151.581131
 21
66.491258
 31
0.0
  0
LINE
  5
135
330
10D
100
AcDbEntity
  8
0
  6
CONTINUOUS
 62
     7
100
AcDbLine
 10
151.581131
 20
66.491258
 30
0.0
 11
151.579102
 21
66.491099
 31
0.0
  0
LINE
  5
136
330
10D
100
AcDbEntity
  8
0
  6
CONTINUOUS
 62
     7
100
AcDbLine
 10
151.579102
 20
66.491099
 30
0.0
 11
151.577039
 21
66.490938
 31
0.0
  0
LINE
  5
137
330
10D
100
AcDbEntity
  8
0
  6
CONTINUOUS
 62
     7
100
AcDbLine
 10
151.577039
 20
66.490938
 30
0.0
 11
151.574941
 21
66.490774
 31
0.0
  0
LINE
  5
138
330
10D
100
AcDbEntity
  8
0
  6
CONTINUOUS
 62
     7
100
AcDbLine
 10
151.574941
 20
66.490774
 30
0.0
 11
151.572809
 21
66.490609
 31
0.0
  0
LINE
  5
139
330
10D
100
AcDbEntity
  8
0
  6
CONTINUOUS
 62
     7
100
AcDbLine
 10
151.572809
 20
66.490609
 30
0.0
 11
151.570643
 21
66.490442
 31
0.0
  0
LINE
  5
13A
330
10D
100
AcDbEntity
  8
0
  6
CONTINUOUS
 62
     7
100
AcDbLine
 10
151.570643
 20
66.490442
 30
0.0
 11
151.568443
 21
66.490272
 31
0.0
  0
LINE
  5
13B
330
10D
100
AcDbEntity
  8
0
  6
CONTINUOUS
 62
     7
100
AcDbLine
 10
151.568443
 20
66.490272
 30
0.0
 11
151.566209
 21
66.4901
 31
0.0
  0
LINE
  5
13C
330
10D
100
AcDbEntity
  8
0
  6
CONTINUOUS
 62
     7
100
AcDbLine
 10
151.566209
 20
66.4901
 30
0.0
 11
151.563942
 21
66.489927
 31
0.0
  0
LINE
  5
13D
330
10D
100
AcDbEntity
  8
0
  6
CONTINUOUS
 62
     7
100
AcDbLine
 10
151.563942
 20
66.489927
 30
0.0
 11
151.561642
 21
66.489751
 31
0.0
  0
LINE
  5
13E
330
10D
100
AcDbEntity
  8
0
  6
CONTINUOUS
 62
     7
100
AcDbLine
 10
151.561642
 20
66.489751
 30
0.0
 11
151.559309
 21
66.489574
 31
0.0
  0
LINE
  5
13F
330
10D
100
AcDbEntity
  8
0
  6
CONTINUOUS
 62
     7
100
AcDbLine
 10
151.559309
 20
66.489574
 30
0.0
 11
151.556943
 21
66.489395
 31
0.0
  0
LINE
  5
140
330
10D
100
AcDbEntity
  8
0
  6
CONTINUOUS
 62
     7
100
AcDbLine
 10
151.556943
 20
66.489395
 30
0.0
 11
151.554545
 21
66.489214
 31
0.0
  0
LINE
  5
141
330
10D
100
AcDbEntity
  8
0
  6
CONTINUOUS
 62
     7
100
AcDbLine
 10
151.554545
 20
66.489214
 30
0.0
 11
151.552116
 21
66.489031
 31
0.0
  0
LINE
  5
142
330
10D
100
AcDbEntity
  8
0
  6
CONTINUOUS
 62
     7
100
AcDbLine
 10
151.552116
 20
66.489031
 30
0.0
 11
151.549654
 21
66.488846
 31
0.0
  0
LINE
  5
143
330
10D
100
AcDbEntity
  8
0
  6
CONTINUOUS
 62
     7
100
AcDbLine
 10
151.549654
 20
66.488846
 30
0.0
 11
151.547161
 21
66.48866
 31
0.0
  0
LINE
  5
144
330
10D
100
AcDbEntity
  8
0
  6
CONTINUOUS
 62
     7
100
AcDbLine
 10
151.547161
 20
66.48866
 30
0.0
 11
151.544637
 21
66.488472
 31
0.0
  0
LINE
  5
145
330
10D
100
AcDbEntity
  8
0
  6
CONTINUOUS
 62
     7
100
AcDbLine
 10
151.544637
 20
66.488472
 30
0.0
 11
151.542082
 21
66.488282
 31
0.0
  0
LINE
  5
146
330
10D
100
AcDbEntity
  8
0
  6
CONTINUOUS
 62
     7
100
AcDbLine
 10
151.542082
 20
66.488282
 30
0.0
 11
151.539497
 21
66.48809
 31
0.0
  0
LINE
  5
147
330
10D
100
AcDbEntity
  8
0
  6
CONTINUOUS
 62
     7
100
AcDbLine
 10
151.539497
 20
66.48809
 30
0.0
 11
151.536881
 21
66.487897
 31
0.0
  0
LINE
  5
148
330
10D
100
AcDbEntity
  8
0
  6
CONTINUOUS
 62
     7
100
AcDbLine
 10
151.536881
 20
66.487897
 30
0.0
 11
151.534234
 21
66.487702
 31
0.0
  0
LINE
  5
149
330
10D
100
AcDbEntity
  8
0
  6
CONTINUOUS
 62
     7
100
AcDbLine
 10
151.534234
 20
66.487702
 30
0.0
 11
151.531558
 21
66.487506
 31
0.0
  0
LINE
  5
14A
330
10D
100
AcDbEntity
  8
0
  6
CONTINUOUS
 62
     7
100
AcDbLine
 10
151.531558
 20
66.487506
 30
0.0
 11
151.528853
 21
66.487308
 31
0.0
  0
LINE
  5
14B
330
10D
100
AcDbEntity
  8
0
  6
CONTINUOUS
 62
     7
100
AcDbLine
 10
151.528853
 20
66.487308
 30
0.0
 11
151.526118
 21
66.487109
 31
0.0
  0
LINE
  5
14C
330
10D
100
AcDbEntity
  8
0
  6
CONTINUOUS
 62
     7
100
AcDbLine
 10
151.526118
 20
66.487109
 30
0.0
 11
151.523354
 21
66.486908
 31
0.0
  0
LINE
  5
14D
330
10D
100
AcDbEntity
  8
0
  6
CONTINUOUS
 62
     7
100
AcDbLine
 10
151.523354
 20
66.486908
 30
0.0
 11
151.520561
 21
66.486706
 31
0.0
  0
LINE
  5
14E
330
10D
100
AcDbEntity
  8
0
  6
CONTINUOUS
 62
     7
100
AcDbLine
 10
151.520561
 20
66.486706
 30
0.0
 11
151.51774
 21
66.486502
 31
0.0
  0
LINE
  5
14F
330
10D
100
AcDbEntity
  8
0
  6
CONTINUOUS
 62
     7
100
AcDbLine
 10
151.51774
 20
66.486502
 30
0.0
 11
151.51489
 21
66.486297
 31
0.0
  0
LINE
  5
150
330
10D
100
AcDbEntity
  8
0
  6
CONTINUOUS
 62
     7
100
AcDbLine
 10
151.51489
 20
66.486297
 30
0.0
 11
151.512013
 21
66.486091
 31
0.0
  0
LINE
  5
151
330
10D
100
AcDbEntity
  8
0
  6
CONTINUOUS
 62
     7
100
AcDbLine
 10
151.512013
 20
66.486091
 30
0.0
 11
151.509107
 21
66.485883
 31
0.0
  0
LINE
  5
152
330
10D
100
AcDbEntity
  8
0
  6
CONTINUOUS
 62
     7
100
AcDbLine
 10
151.509107
 20
66.485883
 30
0.0
 11
151.506175
 21
66.485674
 31
0.0
  0
LINE
  5
153
330
10D
100
AcDbEntity
  8
0
  6
CONTINUOUS
 62
     7
100
AcDbLine
 10
151.506175
 20
66.485674
 30
0.0
 11
151.503215
 21
66.485464
 31
0.0
  0
LINE
  5
154
330
10D
100
AcDbEntity
  8
0
  6
CONTINUOUS
 62
     7
100
AcDbLine
 10
151.503215
 20
66.485464
 30
0.0
 11
151.500228
 21
66.485253
 31
0.0
  0
LINE
  5
155
330
10D
100
AcDbEntity
  8
0
  6
CONTINUOUS
 62
     7
100
AcDbLine
 10
151.500228
 20
66.485253
 30
0.0
 11
151.497214
 21
66.48504
 31
0.0
  0
LINE
  5
156
330
10D
100
AcDbEntity
  8
0
  6
CONTINUOUS
 62
     7
100
AcDbLine
 10
151.497214
 20
66.48504
 30
0.0
 11
151.494174
 21
66.484826
 31
0.0
  0
LINE
  5
157
330
10D
100
AcDbEntity
  8
0
  6
CONTINUOUS
 62
     7
100
AcDbLine
 10
151.494174
 20
66.484826
 30
0.0
 11
151.491108
 21
66.484612
 31
0.0
  0
LINE
  5
158
330
10D
100
AcDbEntity
  8
0
  6
CONTINUOUS
 62
     7
100
AcDbLine
 10
151.491108
 20
66.484612
 30
0.0
 11
151.488016
 21
66.484396
 31
0.0
  0
LINE
  5
159
330
10D
100
AcDbEntity
  8
0
  6
CONTINUOUS
 62
     7
100
AcDbLine
 10
151.488016
 20
66.484396
 30
0.0
 11
151.484899
 21
66.484179
 31
0.0
  0
LINE
  5
15A
330
10D
100
AcDbEntity
  8
0
  6
CONTINUOUS
 62
     7
100
AcDbLine
 10
151.484899
 20
66.484179
 30
0.0
 11
151.481756
 21
66.48396
 31
0.0
  0
LINE
  5
15B
330
10D
100
AcDbEntity
  8
0
  6
CONTINUOUS
 62
     7
100
AcDbLine
 10
151.481756
 20
66.48396
 30
0.0
 11
151.478588
 21
66.483741
 31
0.0
  0
LINE
  5
15C
330
10D
100
AcDbEntity
  8
0
  6
CONTINUOUS
 62
     7
100
AcDbLine
 10
151.478588
 20
66.483741
 30
0.0
 11
151.475396
 21
66.483521
 31
0.0
  0
LINE
  5
15D
330
10D
100
AcDbEntity
  8
0
  6
CONTINUOUS
 62
     7
100
AcDbLine
 10
151.475396
 20
66.483521
 30
0.0
 11
151.472178
 21
66.4833
 31
0.0
  0
LINE
  5
15E
330
10D
100
AcDbEntity
  8
0
  6
CONTINUOUS
 62
     7
100
AcDbLine
 10
151.472178
 20
66.4833
 30
0.0
 11
151.468937
 21
66.483079
 31
0.0
  0
LINE
  5
15F
330
10D
100
AcDbEntity
  8
0
  6
CONTINUOUS
 62
     7
100
AcDbLine
 10
151.468937
 20
66.483079
 30
0.0
 11
151.465671
 21
66.482856
 31
0.0
  0
LINE
  5
160
330
10D
100
AcDbEntity
  8
0
  6
CONTINUOUS
 62
     7
100
AcDbLine
 10
151.465671
 20
66.482856
 30
0.0
 11
151.462382
 21
66.482632
 31
0.0
  0
LINE
  5
161
330
10D
100
AcDbEntity
  8
0
  6
CONTINUOUS
 62
     7
100
AcDbLine
 10
151.462382
 20
66.482632
 30
0.0
 11
151.45907
 21
66.482408
 31
0.0
  0
LINE
  5
162
330
10D
100
AcDbEntity
  8
0
  6
CONTINUOUS
 62
     7
100
AcDbLine
 10
151.45907
 20
66.482408
 30
0.0
 11
151.455734
 21
66.482183
 31
0.0
  0
LINE
  5
163
330
10D
100
AcDbEntity
  8
0
  6
CONTINUOUS
 62
     7
100
AcDbLine
 10
151.455734
 20
66.482183
 30
0.0
 11
151.452375
 21
66.481957
 31
0.0
  0
LINE
  5
164
330
10D
100
AcDbEntity
  8
0
  6
CONTINUOUS
 62
     7
100
AcDbLine
 10
151.452375
 20
66.481957
 30
0.0
 11
151.448994
 21
66.48173
 31
0.0
  0
LINE
  5
165
330
10D
100
AcDbEntity
  8
0
  6
CONTINUOUS
 62
     7
100
AcDbLine
 10
151.448994
 20
66.48173
 30
0.0
 11
151.44559
 21
66.481503
 31
0.0
  0
LINE
  5
166
330
10D
100
AcDbEntity
  8
0
  6
CONTINUOUS
 62
     7
100
AcDbLine
 10
151.44559
 20
66.481503
 30
0.0
 11
151.442164
 21
66.481275
 31
0.0
  0
LINE
  5
167
330
10D
100
AcDbEntity
  8
0
  6
CONTINUOUS
 62
     7
100
AcDbLine
 10
151.442164
 20
66.481275
 30
0.0
 11
151.438716
 21
66.481046
 31
0.0
  0
LINE
  5
168
330
10D
100
AcDbEntity
  8
0
  6
CONTINUOUS
 62
     7
100
AcDbLine
 10
151.438716
 20
66.481046
 30
0.0
 11
151.435247
 21
66.480817
 31
0.0
  0
LINE
  5
169
330
10D
100
AcDbEntity
  8
0
  6
CONTINUOUS
 62
     7
100
AcDbLine
 10
151.435247
 20
66.480817
 30
0.0
 11
151.431756
 21
66.480587
 31
0.0
  0
LINE
  5
16A
330
10D
100
AcDbEntity
  8
0
  6
CONTINUOUS
 62
     7
100
AcDbLine
 10
151.431756
 20
66.480587
 30
0.0
 11
151.428244
 21
66.480357
 31
0.0
  0
LINE
  5
16B
330
10D
100
AcDbEntity
  8
0
  6
CONTINUOUS
 62
     7
100
AcDbLine
 10
151.428244
 20
66.480357
 30
0.0
 11
151.424712
 21
66.480126
 31
0.0
  0
LINE
  5
16C
330
10D
100
AcDbEntity
  8
0
  6
CONTINUOUS
 62
     7
100
AcDbLine
 10
151.424712
 20
66.480126
 30
0.0
 11
151.421158
 21
66.479895
 31
0.0
  0
LINE
  5
16D
330
10D
100
AcDbEntity
  8
0
  6
CONTINUOUS
 62
     7
100
AcDbLine
 10
151.421158
 20
66.479895
 30
0.0
 11
151.417585
 21
66.479663
 31
0.0
  0
LINE
  5
16E
330
10D
100
AcDbEntity
  8
0
  6
CONTINUOUS
 62
     7
100
AcDbLine
 10
151.417585
 20
66.479663
 30
0.0
 11
151.413992
 21
66.479431
 31
0.0
  0
LINE
  5
16F
330
10D
100
AcDbEntity
  8
0
  6
CONTINUOUS
 62
     7
100
AcDbLine
 10
151.413992
 20
66.479431
 30
0.0
 11
151.410379
 21
66.479199
 31
0.0
  0
LINE
  5
170
330
10D
100
AcDbEntity
  8
0
  6
CONTINUOUS
 62
     7
100
AcDbLine
 10
151.410379
 20
66.479199
 30
0.0
 11
151.406746
 21
66.478966
 31
0.0
  0
LINE
  5
171
330
10D
100
AcDbEntity
  8
0
  6
CONTINUOUS
 62
     7
100
AcDbLine
 10
151.406746
 20
66.478966
 30
0.0
 11
151.403094
 21
66.478733
 31
0.0
  0
LINE
  5
172
330
10D
100
AcDbEntity
  8
0
  6
CONTINUOUS
 62
     7
100
AcDbLine
 10
151.403094
 20
66.478733
 30
0.0
 11
151.399424
 21
66.478499
 31
0.0
  0
LINE
  5
173
330
10D
100
AcDbEntity
  8
0
  6
CONTINUOUS
 62
     7
100
AcDbLine
 10
151.399424
 20
66.478499
 30
0.0
 11
151.395734
 21
66.478266
 31
0.0
  0
LINE
  5
174
330
10D
100
AcDbEntity
  8
0
  6
CONTINUOUS
 62
     7
100
AcDbLine
 10
151.395734
 20
66.478266
 30
0.0
 11
151.392039
 21
66.478033
 31
0.0
  0
LINE
  5
175
330
10D
100
AcDbEntity
  8
0
  6
CONTINUOUS
 62
     7
100
AcDbLine
 10
151.392039
 20
66.478033
 30
0.0
 11
151.388325
 21
66.477799
 31
0.0
  0
LINE
  5
176
330
10D
100
AcDbEntity
  8
0
  6
CONTINUOUS
 62
     7
100
AcDbLine
 10
151.388325
 20
66.477799
 30
0.0
 11
151.384593
 21
66.477566
 31
0.0
  0
LINE
  5
177
330
10D
100
AcDbEntity
  8
0
  6
CONTINUOUS
 62
     7
100
AcDbLine
 10
151.384593
 20
66.477566
 30
0.0
 11
151.380843
 21
66.477332
 31
0.0
  0
LINE
  5
178
330
10D
100
AcDbEntity
  8
0
  6
CONTINUOUS
 62
     7
100
AcDbLine
 10
151.380843
 20
66.477332
 30
0.0
 11
151.377075
 21
66.477099
 31
0.0
  0
LINE
  5
179
330
10D
100
AcDbEntity
  8
0
  6
CONTINUOUS
 62
     7
100
AcDbLine
 10
151.377075
 20
66.477099
 30
0.0
 11
151.373289
 21
66.476865
 31
0.0
  0
LINE
  5
17A
330
10D
100
AcDbEntity
  8
0
  6
CONTINUOUS
 62
     7
100
AcDbLine
 10
151.373289
 20
66.476865
 30
0.0
 11
151.369485
 21
66.476632
 31
0.0
  0
LINE
  5
17B
330
10D
100
AcDbEntity
  8
0
  6
CONTINUOUS
 62
     7
100
AcDbLine
 10
151.369485
 20
66.476632
 30
0.0
 11
151.365663
 21
66.476398
 31
0.0
  0
LINE
  5
17C
330
10D
100
AcDbEntity
  8
0
  6
CONTINUOUS
 62
     7
100
AcDbLine
 10
151.365663
 20
66.476398
 30
0.0
 11
151.361823
 21
66.476165
 31
0.0
  0
LINE
  5
17D
330
10D
100
AcDbEntity
  8
0
  6
CONTINUOUS
 62
     7
100
AcDbLine
 10
151.361823
 20
66.476165
 30
0.0
 11
151.357966
 21
66.475931
 31
0.0
  0
LINE
  5
17E
330
10D
100
AcDbEntity
  8
0
  6
CONTINUOUS
 62
     7
100
AcDbLine
 10
151.357966
 20
66.475931
 30
0.0
 11
151.354091
 21
66.475698
 31
0.0
  0
LINE
  5
17F
330
10D
100
AcDbEntity
  8
0
  6
CONTINUOUS
 62
     7
100
AcDbLine
 10
151.354091
 20
66.475698
 30
0.0
 11
151.350198
 21
66.475465
 31
0.0
  0
LINE
  5
180
330
10D
100
AcDbEntity
  8
0
  6
CONTINUOUS
 62
     7
100
AcDbLine
 10
151.350198
 20
66.475465
 30
0.0
 11
151.346287
 21
66.475232
 31
0.0
  0
LINE
  5
181
330
10D
100
AcDbEntity
  8
0
  6
CONTINUOUS
 62
     7
100
AcDbLine
 10
151.346287
 20
66.475232
 30
0.0
 11
151.342359
 21
66.475
 31
0.0
  0
LINE
  5
182
330
10D
100
AcDbEntity
  8
0
  6
CONTINUOUS
 62
     7
100
AcDbLine
 10
151.342359
 20
66.475
 30
0.0
 11
151.338413
 21
66.474767
 31
0.0
  0
LINE
  5
183
330
10D
100
AcDbEntity
  8
0
  6
CONTINUOUS
 62
     7
100
AcDbLine
 10
151.338413
 20
66.474767
 30
0.0
 11
151.33445
 21
66.474536
 31
0.0
  0
LINE
  5
184
330
10D
100
AcDbEntity
  8
0
  6
CONTINUOUS
 62
     7
100
AcDbLine
 10
151.33445
 20
66.474536
 30
0.0
 11
151.330469
 21
66.474304
 31
0.0
  0
LINE
  5
185
330
10D
100
AcDbEntity
  8
0
  6
CONTINUOUS
 62
     7
100
AcDbLine
 10
151.330469
 20
66.474304
 30
0.0
 11
151.326471
 21
66.474073
 31
0.0
  0
LINE
  5
186
330
10D
100
AcDbEntity
  8
0
  6
CONTINUOUS
 62
     7
100
AcDbLine
 10
151.326471
 20
66.474073
 30
0.0
 11
151.322455
 21
66.473842
 31
0.0
  0
LINE
  5
187
330
10D
100
AcDbEntity
  8
0
  6
CONTINUOUS
 62
     7
100
AcDbLine
 10
151.322455
 20
66.473842
 30
0.0
 11
151.318423
 21
66.473612
 31
0.0
  0
LINE
  5
188
330
10D
100
AcDbEntity
  8
0
  6
CONTINUOUS
 62
     7
100
AcDbLine
 10
151.318423
 20
66.473612
 30
0.0
 11
151.314373
 21
66.473382
 31
0.0
  0
LINE
  5
189
330
10D
100
AcDbEntity
  8
0
  6
CONTINUOUS
 62
     7
100
AcDbLine
 10
151.314373
 20
66.473382
 30
0.0
 11
151.310306
 21
66.473153
 31
0.0
  0
LINE
  5
18A
330
10D
100
AcDbEntity
  8
0
  6
CONTINUOUS
 62
     7
100
AcDbLine
 10
151.310306
 20
66.473153
 30
0.0
 11
151.306222
 21
66.472925
 31
0.0
  0
LINE
  5
18B
330
10D
100
AcDbEntity
  8
0
  6
CONTINUOUS
 62
     7
100
AcDbLine
 10
151.306222
 20
66.472925
 30
0.0
 11
151.30212
 21
66.472697
 31
0.0
  0
LINE
  5
18C
330
10D
100
AcDbEntity
  8
0
  6
CONTINUOUS
 62
     7
100
AcDbLine
 10
151.30212
 20
66.472697
 30
0.0
 11
151.298002
 21
66.47247
 31
0.0
  0
LINE
  5
18D
330
10D
100
AcDbEntity
  8
0
  6
CONTINUOUS
 62
     7
100
AcDbLine
 10
151.298002
 20
66.47247
 30
0.0
 11
151.293867
 21
66.472243
 31
0.0
  0
LINE
  5
18E
330
10D
100
AcDbEntity
  8
0
  6
CONTINUOUS
 62
     7
100
AcDbLine
 10
151.293867
 20
66.472243
 30
0.0
 11
151.289715
 21
66.472017
 31
0.0
  0
LINE
  5
18F
330
10D
100
AcDbEntity
  8
0
  6
CONTINUOUS
 62
     7
100
AcDbLine
 10
151.289715
 20
66.472017
 30
0.0
 11
151.285546
 21
66.471792
 31
0.0
  0
LINE
  5
190
330
10D
100
AcDbEntity
  8
0
  6
CONTINUOUS
 62
     7
100
AcDbLine
 10
151.285546
 20
66.471792
 30
0.0
 11
151.283455
 21
66.47168
 31
0.0
  0
LINE
  5
191
330
10D
100
AcDbEntity
  8
0
  6
CONTINUOUS
 62
     7
100
AcDbLine
 10
151.283455
 20
66.47168
 30
0.0
 11
151.28136
 21
66.471568
 31
0.0
  0
LINE
  5
192
330
10D
100
AcDbEntity
  8
0
  6
CONTINUOUS
 62
     7
100
AcDbLine
 10
151.28136
 20
66.471568
 30
0.0
 11
151.279261
 21
66.471456
 31
0.0
  0
LINE
  5
193
330
10D
100
AcDbEntity
  8
0
  6
CONTINUOUS
 62
     7
100
AcDbLine
 10
151.279261
 20
66.471456
 30
0.0
 11
151.277157
 21
66.471345
 31
0.0
  0
LINE
  5
194
330
10D
100
AcDbEntity
  8
0
  6
CONTINUOUS
 62
     7
100
AcDbLine
 10
151.277157
 20
66.471345
 30
0.0
 11
151.27505
 21
66.471233
 31
0.0
  0
LINE
  5
195
330
10D
100
AcDbEntity
  8
0
  6
CONTINUOUS
 62
     7
100
AcDbLine
 10
151.27505
 20
66.471233
 30
0.0
 11
151.272938
 21
66.471122
 31
0.0
  0
LINE
  5
196
330
10D
100
AcDbEntity
  8
0
  6
CONTINUOUS
 62
     7
100
AcDbLine
 10
151.272938
 20
66.471122
 30
0.0
 11
151.270822
 21
66.471011
 31
0.0
  0
LINE
  5
197
330
10D
100
AcDbEntity
  8
0
  6
CONTINUOUS
 62
     7
100
AcDbLine
 10
151.270822
 20
66.471011
 30
0.0
 11
151.268702
 21
66.470901
 31
0.0
  0
LINE
  5
198
330
10D
100
AcDbEntity
  8
0
  6
CONTINUOUS
 62
     7
100
AcDbLine
 10
151.268702
 20
66.470901
 30
0.0
 11
151.266578
 21
66.47079
 31
0.0
  0
LINE
  5
199
330
10D
100
AcDbEntity
  8
0
  6
CONTINUOUS
 62
     7
100
AcDbLine
 10
151.266578
 20
66.47079
 30
0.0
 11
151.26445
 21
66.47068
 31
0.0
  0
LINE
  5
19A
330
10D
100
AcDbEntity
  8
0
  6
CONTINUOUS
 62
     7
100
AcDbLine
 10
151.26445
 20
66.47068
 30
0.0
 11
151.262317
 21
66.47057
 31
0.0
  0
LINE
  5
19B
330
10D
100
AcDbEntity
  8
0
  6
CONTINUOUS
 62
     7
100
AcDbLine
 10
151.262317
 20
66.47057
 30
0.0
 11
151.260181
 21
66.47046
 31
0.0
  0
LINE
  5
19C
330
10D
100
AcDbEntity
  8
0
  6
CONTINUOUS
 62
     7
100
AcDbLine
 10
151.260181
 20
66.47046
 30
0.0
 11
151.25804
 21
66.470351
 31
0.0
  0
LINE
  5
19D
330
10D
100
AcDbEntity
  8
0
  6
CONTINUOUS
 62
     7
100
AcDbLine
 10
151.25804
 20
66.470351
 30
0.0
 11
151.255895
 21
66.470242
 31
0.0
  0
LINE
  5
19E
330
10D
100
AcDbEntity
  8
0
  6
CONTINUOUS
 62
     7
100
AcDbLine
 10
151.255895
 20
66.470242
 30
0.0
 11
151.253746
 21
66.470133
 31
0.0
  0
LINE
  5
19F
330
10D
100
AcDbEntity
  8
0
  6
CONTINUOUS
 62
     7
100
AcDbLine
 10
151.253746
 20
66.470133
 30
0.0
 11
151.251593
 21
66.470024
 31
0.0
  0
LINE
  5
1A0
330
10D
100
AcDbEntity
  8
0
  6
CONTINUOUS
 62
     7
100
AcDbLine
 10
151.251593
 20
66.470024
 30
0.0
 11
151.249436
 21
66.469916
 31
0.0
  0
LINE
  5
1A1
330
10D
100
AcDbEntity
  8
0
  6
CONTINUOUS
 62
     7
100
AcDbLine
 10
151.249436
 20
66.469916
 30
0.0
 11
151.247275
 21
66.469808
 31
0.0
  0
LINE
  5
1A2
330
10D
100
AcDbEntity
  8
0
  6
CONTINUOUS
 62
     7
100
AcDbLine
 10
151.247275
 20
66.469808
 30
0.0
 11
151.24511
 21
66.4697
 31
0.0
  0
LINE
  5
1A3
330
10D
100
AcDbEntity
  8
0
  6
CONTINUOUS
 62
     7
100
AcDbLine
 10
151.24511
 20
66.4697
 30
0.0
 11
151.24294
 21
66.469592
 31
0.0
  0
LINE
  5
1A4
330
10D
100
AcDbEntity
  8
0
  6
CONTINUOUS
 62
     7
100
AcDbLine
 10
151.24294
 20
66.469592
 30
0.0
 11
151.240767
 21
66.469485
 31
0.0
  0
LINE
  5
1A5
330
10D
100
AcDbEntity
  8
0
  6
CONTINUOUS
 62
     7
100
AcDbLine
 10
151.240767
 20
66.469485
 30
0.0
 11
151.23859
 21
66.469378
 31
0.0
  0
LINE
  5
1A6
330
10D
100
AcDbEntity
  8
0
  6
CONTINUOUS
 62
     7
100
AcDbLine
 10
151.23859
 20
66.469378
 30
0.0
 11
151.236408
 21
66.469272
 31
0.0
  0
LINE
  5
1A7
330
10D
100
AcDbEntity
  8
0
  6
CONTINUOUS
 62
     7
100
AcDbLine
 10
151.236408
 20
66.469272
 30
0.0
 11
151.234222
 21
66.469165
 31
0.0
  0
LINE
  5
1A8
330
10D
100
AcDbEntity
  8
0
  6
CONTINUOUS
 62
     7
100
AcDbLine
 10
151.234222
 20
66.469165
 30
0.0
 11
151.232033
 21
66.469059
 31
0.0
  0
LINE
  5
1A9
330
10D
100
AcDbEntity
  8
0
  6
CONTINUOUS
 62
     7
100
AcDbLine
 10
151.232033
 20
66.469059
 30
0.0
 11
151.229839
 21
66.468954
 31
0.0
  0
LINE
  5
1AA
330
10D
100
AcDbEntity
  8
0
  6
CONTINUOUS
 62
     7
100
AcDbLine
 10
151.229839
 20
66.468954
 30
0.0
 11
151.227641
 21
66.468848
 31
0.0
  0
LINE
  5
1AB
330
10D
100
AcDbEntity
  8
0
  6
CONTINUOUS
 62
     7
100
AcDbLine
 10
151.227641
 20
66.468848
 30
0.0
 11
151.22544
 21
66.468743
 31
0.0
  0
LINE
  5
1AC
330
10D
100
AcDbEntity
  8
0
  6
CONTINUOUS
 62
     7
100
AcDbLine
 10
151.22544
 20
66.468743
 30
0.0
 11
151.223234
 21
66.468639
 31
0.0
  0
LINE
  5
1AD
330
10D
100
AcDbEntity
  8
0
  6
CONTINUOUS
 62
     7
100
AcDbLine
 10
151.223234
 20
66.468639
 30
0.0
 11
151.221024
 21
66.468534
 31
0.0
  0
LINE
  5
1AE
330
10D
100
AcDbEntity
  8
0
  6
CONTINUOUS
 62
     7
100
AcDbLine
 10
151.221024
 20
66.468534
 30
0.0
 11
151.218811
 21
66.46843
 31
0.0
  0
LINE
  5
1AF
330
10D
100
AcDbEntity
  8
0
  6
CONTINUOUS
 62
     7
100
AcDbLine
 10
151.218811
 20
66.46843
 30
0.0
 11
151.216593
 21
66.468327
 31
0.0
  0
LINE
  5
1B0
330
10D
100
AcDbEntity
  8
0
  6
CONTINUOUS
 62
     7
100
AcDbLine
 10
151.216593
 20
66.468327
 30
0.0
 11
151.214371
 21
66.468223
 31
0.0
  0
LINE
  5
1B1
330
10D
100
AcDbEntity
  8
0
  6
CONTINUOUS
 62
     7
100
AcDbLine
 10
151.214371
 20
66.468223
 30
0.0
 11
151.212145
 21
66.46812
 31
0.0
  0
LINE
  5
1B2
330
10D
100
AcDbEntity
  8
0
  6
CONTINUOUS
 62
     7
100
AcDbLine
 10
151.212145
 20
66.46812
 30
0.0
 11
151.209916
 21
66.468018
 31
0.0
  0
LINE
  5
1B3
330
10D
100
AcDbEntity
  8
0
  6
CONTINUOUS
 62
     7
100
AcDbLine
 10
151.209916
 20
66.468018
 30
0.0
 11
151.207682
 21
66.467916
 31
0.0
  0
LINE
  5
1B4
330
10D
100
AcDbEntity
  8
0
  6
CONTINUOUS
 62
     7
100
AcDbLine
 10
151.207682
 20
66.467916
 30
0.0
 11
151.205444
 21
66.467814
 31
0.0
  0
LINE
  5
1B5
330
10D
100
AcDbEntity
  8
0
  6
CONTINUOUS
 62
     7
100
AcDbLine
 10
151.205444
 20
66.467814
 30
0.0
 11
151.203203
 21
66.467712
 31
0.0
  0
LINE
  5
1B6
330
10D
100
AcDbEntity
  8
0
  6
CONTINUOUS
 62
     7
100
AcDbLine
 10
151.203203
 20
66.467712
 30
0.0
 11
151.200957
 21
66.467611
 31
0.0
  0
LINE
  5
1B7
330
10D
100
AcDbEntity
  8
0
  6
CONTINUOUS
 62
     7
100
AcDbLine
 10
151.200957
 20
66.467611
 30
0.0
 11
151.198708
 21
66.46751
 31
0.0
  0
LINE
  5
1B8
330
10D
100
AcDbEntity
  8
0
  6
CONTINUOUS
 62
     7
100
AcDbLine
 10
151.198708
 20
66.46751
 30
0.0
 11
151.196454
 21
66.46741
 31
0.0
  0
LINE
  5
1B9
330
10D
100
AcDbEntity
  8
0
  6
CONTINUOUS
 62
     7
100
AcDbLine
 10
151.196454
 20
66.46741
 30
0.0
 11
151.194197
 21
66.46731
 31
0.0
  0
LINE
  5
1BA
330
10D
100
AcDbEntity
  8
0
  6
CONTINUOUS
 62
     7
100
AcDbLine
 10
151.194197
 20
66.46731
 30
0.0
 11
151.191936
 21
66.46721
 31
0.0
  0
LINE
  5
1BB
330
10D
100
AcDbEntity
  8
0
  6
CONTINUOUS
 62
     7
100
AcDbLine
 10
151.191936
 20
66.46721
 30
0.0
 11
151.189671
 21
66.467111
 31
0.0
  0
LINE
  5
1BC
330
10D
100
AcDbEntity
  8
0
  6
CONTINUOUS
 62
     7
100
AcDbLine
 10
151.189671
 20
66.467111
 30
0.0
 11
151.187402
 21
66.467012
 31
0.0
  0
LINE
  5
1BD
330
10D
100
AcDbEntity
  8
0
  6
CONTINUOUS
 62
     7
100
AcDbLine
 10
151.187402
 20
66.467012
 30
0.0
 11
151.185129
 21
66.466914
 31
0.0
  0
LINE
  5
1BE
330
10D
100
AcDbEntity
  8
0
  6
CONTINUOUS
 62
     7
100
AcDbLine
 10
151.185129
 20
66.466914
 30
0.0
 11
151.182852
 21
66.466816
 31
0.0
  0
LINE
  5
1BF
330
10D
100
AcDbEntity
  8
0
  6
CONTINUOUS
 62
     7
100
AcDbLine
 10
151.182852
 20
66.466816
 30
0.0
 11
151.180571
 21
66.466719
 31
0.0
  0
LINE
  5
1C0
330
10D
100
AcDbEntity
  8
0
  6
CONTINUOUS
 62
     7
100
AcDbLine
 10
151.180571
 20
66.466719
 30
0.0
 11
151.178286
 21
66.466621
 31
0.0
  0
LINE
  5
1C1
330
10D
100
AcDbEntity
  8
0
  6
CONTINUOUS
 62
     7
100
AcDbLine
 10
151.178286
 20
66.466621
 30
0.0
 11
151.175998
 21
66.466525
 31
0.0
  0
LINE
  5
1C2
330
10D
100
AcDbEntity
  8
0
  6
CONTINUOUS
 62
     7
100
AcDbLine
 10
151.175998
 20
66.466525
 30
0.0
 11
151.173705
 21
66.466428
 31
0.0
  0
LINE
  5
1C3
330
10D
100
AcDbEntity
  8
0
  6
CONTINUOUS
 62
     7
100
AcDbLine
 10
151.173705
 20
66.466428
 30
0.0
 11
151.171409
 21
66.466333
 31
0.0
  0
LINE
  5
1C4
330
10D
100
AcDbEntity
  8
0
  6
CONTINUOUS
 62
     7
100
AcDbLine
 10
151.171409
 20
66.466333
 30
0.0
 11
151.169109
 21
66.466237
 31
0.0
  0
LINE
  5
1C5
330
10D
100
AcDbEntity
  8
0
  6
CONTINUOUS
 62
     7
100
AcDbLine
 10
151.169109
 20
66.466237
 30
0.0
 11
151.166805
 21
66.466142
 31
0.0
  0
LINE
  5
1C6
330
10D
100
AcDbEntity
  8
0
  6
CONTINUOUS
 62
     7
100
AcDbLine
 10
151.166805
 20
66.466142
 30
0.0
 11
151.164497
 21
66.466048
 31
0.0
  0
LINE
  5
1C7
330
10D
100
AcDbEntity
  8
0
  6
CONTINUOUS
 62
     7
100
AcDbLine
 10
151.164497
 20
66.466048
 30
0.0
 11
151.162185
 21
66.465954
 31
0.0
  0
LINE
  5
1C8
330
10D
100
AcDbEntity
  8
0
  6
CONTINUOUS
 62
     7
100
AcDbLine
 10
151.162185
 20
66.465954
 30
0.0
 11
151.15987
 21
66.46586
 31
0.0
  0
LINE
  5
1C9
330
10D
100
AcDbEntity
  8
0
  6
CONTINUOUS
 62
     7
100
AcDbLine
 10
151.15987
 20
66.46586
 30
0.0
 11
151.157551
 21
66.465767
 31
0.0
  0
LINE
  5
1CA
330
10D
100
AcDbEntity
  8
0
  6
CONTINUOUS
 62
     7
100
AcDbLine
 10
151.157551
 20
66.465767
 30
0.0
 11
151.155227
 21
66.465674
 31
0.0
  0
LINE
  5
1CB
330
10D
100
AcDbEntity
  8
0
  6
CONTINUOUS
 62
     7
100
AcDbLine
 10
151.155227
 20
66.465674
 30
0.0
 11
151.1529
 21
66.465582
 31
0.0
  0
LINE
  5
1CC
330
10D
100
AcDbEntity
  8
0
  6
CONTINUOUS
 62
     7
100
AcDbLine
 10
151.1529
 20
66.465582
 30
0.0
 11
151.15057
 21
66.465491
 31
0.0
  0
LINE
  5
1CD
330
10D
100
AcDbEntity
  8
0
  6
CONTINUOUS
 62
     7
100
AcDbLine
 10
151.15057
 20
66.465491
 30
0.0
 11
151.148235
 21
66.465399
 31
0.0
  0
LINE
  5
1CE
330
10D
100
AcDbEntity
  8
0
  6
CONTINUOUS
 62
     7
100
AcDbLine
 10
151.148235
 20
66.465399
 30
0.0
 11
151.145897
 21
66.465309
 31
0.0
  0
LINE
  5
1CF
330
10D
100
AcDbEntity
  8
0
  6
CONTINUOUS
 62
     7
100
AcDbLine
 10
151.145897
 20
66.465309
 30
0.0
 11
151.143555
 21
66.465218
 31
0.0
  0
LINE
  5
1D0
330
10D
100
AcDbEntity
  8
0
  6
CONTINUOUS
 62
     7
100
AcDbLine
 10
151.143555
 20
66.465218
 30
0.0
 11
151.141209
 21
66.465129
 31
0.0
  0
LINE
  5
1D1
330
10D
100
AcDbEntity
  8
0
  6
CONTINUOUS
 62
     7
100
AcDbLine
 10
151.141209
 20
66.465129
 30
0.0
 11
151.138859
 21
66.465039
 31
0.0
  0
LINE
  5
1D2
330
10D
100
AcDbEntity
  8
0
  6
CONTINUOUS
 62
     7
100
AcDbLine
 10
151.138859
 20
66.465039
 30
0.0
 11
151.136506
 21
66.464951
 31
0.0
  0
LINE
  5
1D3
330
10D
100
AcDbEntity
  8
0
  6
CONTINUOUS
 62
     7
100
AcDbLine
 10
151.136506
 20
66.464951
 30
0.0
 11
151.134148
 21
66.464862
 31
0.0
  0
LINE
  5
1D4
330
10D
100
AcDbEntity
  8
0
  6
CONTINUOUS
 62
     7
100
AcDbLine
 10
151.134148
 20
66.464862
 30
0.0
 11
151.131787
 21
66.464775
 31
0.0
  0
LINE
  5
1D5
330
10D
100
AcDbEntity
  8
0
  6
CONTINUOUS
 62
     7
100
AcDbLine
 10
151.131787
 20
66.464775
 30
0.0
 11
151.129423
 21
66.464687
 31
0.0
  0
LINE
  5
1D6
330
10D
100
AcDbEntity
  8
0
  6
CONTINUOUS
 62
     7
100
AcDbLine
 10
151.129423
 20
66.464687
 30
0.0
 11
151.127054
 21
66.464601
 31
0.0
  0
LINE
  5
1D7
330
10D
100
AcDbEntity
  8
0
  6
CONTINUOUS
 62
     7
100
AcDbLine
 10
151.127054
 20
66.464601
 30
0.0
 11
151.124682
 21
66.464515
 31
0.0
  0
LINE
  5
1D8
330
10D
100
AcDbEntity
  8
0
  6
CONTINUOUS
 62
     7
100
AcDbLine
 10
151.124682
 20
66.464515
 30
0.0
 11
151.122406
 21
66.464433
 31
0.0
  0
LINE
  5
1D9
330
10D
100
AcDbEntity
  8
0
  6
CONTINUOUS
 62
     7
100
AcDbLine
 10
151.122406
 20
66.464433
 30
0.0
 11
151.120126
 21
66.464351
 31
0.0
  0
LINE
  5
1DA
330
10D
100
AcDbEntity
  8
0
  6
CONTINUOUS
 62
     7
100
AcDbLine
 10
151.120126
 20
66.464351
 30
0.0
 11
151.117843
 21
66.46427
 31
0.0
  0
LINE
  5
1DB
330
10D
100
AcDbEntity
  8
0
  6
CONTINUOUS
 62
     7
100
AcDbLine
 10
151.117843
 20
66.46427
 30
0.0
 11
151.115557
 21
66.464189
 31
0.0
  0
LINE
  5
1DC
330
10D
100
AcDbEntity
  8
0
  6
CONTINUOUS
 62
     7
100
AcDbLine
 10
151.115557
 20
66.464189
 30
0.0
 11
151.113267
 21
66.464109
 31
0.0
  0
LINE
  5
1DD
330
10D
100
AcDbEntity
  8
0
  6
CONTINUOUS
 62
     7
100
AcDbLine
 10
151.113267
 20
66.464109
 30
0.0
 11
151.110974
 21
66.46403
 31
0.0
  0
LINE
  5
1DE
330
10D
100
AcDbEntity
  8
0
  6
CONTINUOUS
 62
     7
100
AcDbLine
 10
151.110974
 20
66.46403
 30
0.0
 11
151.108678
 21
66.463951
 31
0.0
  0
LINE
  5
1DF
330
10D
100
AcDbEntity
  8
0
  6
CONTINUOUS
 62
     7
100
AcDbLine
 10
151.108678
 20
66.463951
 30
0.0
 11
151.106379
 21
66.463872
 31
0.0
  0
LINE
  5
1E0
330
10D
100
AcDbEntity
  8
0
  6
CONTINUOUS
 62
     7
100
AcDbLine
 10
151.106379
 20
66.463872
 30
0.0
 11
151.104076
 21
66.463795
 31
0.0
  0
LINE
  5
1E1
330
10D
100
AcDbEntity
  8
0
  6
CONTINUOUS
 62
     7
100
AcDbLine
 10
151.104076
 20
66.463795
 30
0.0
 11
151.10177
 21
66.463717
 31
0.0
  0
LINE
  5
1E2
330
10D
100
AcDbEntity
  8
0
  6
CONTINUOUS
 62
     7
100
AcDbLine
 10
151.10177
 20
66.463717
 30
0.0
 11
151.099462
 21
66.46364
 31
0.0
  0
LINE
  5
1E3
330
10D
100
AcDbEntity
  8
0
  6
CONTINUOUS
 62
     7
100
AcDbLine
 10
151.099462
 20
66.46364
 30
0.0
 11
151.09715
 21
66.463564
 31
0.0
  0
LINE
  5
1E4
330
10D
100
AcDbEntity
  8
0
  6
CONTINUOUS
 62
     7
100
AcDbLine
 10
151.09715
 20
66.463564
 30
0.0
 11
151.094835
 21
66.463488
 31
0.0
  0
LINE
  5
1E5
330
10D
100
AcDbEntity
  8
0
  6
CONTINUOUS
 62
     7
100
AcDbLine
 10
151.094835
 20
66.463488
 30
0.0
 11
151.092517
 21
66.463413
 31
0.0
  0
LINE
  5
1E6
330
10D
100
AcDbEntity
  8
0
  6
CONTINUOUS
 62
     7
100
AcDbLine
 10
151.092517
 20
66.463413
 30
0.0
 11
151.090196
 21
66.463338
 31
0.0
  0
LINE
  5
1E7
330
10D
100
AcDbEntity
  8
0
  6
CONTINUOUS
 62
     7
100
AcDbLine
 10
151.090196
 20
66.463338
 30
0.0
 11
151.087872
 21
66.463264
 31
0.0
  0
LINE
  5
1E8
330
10D
100
AcDbEntity
  8
0
  6
CONTINUOUS
 62
     7
100
AcDbLine
 10
151.087872
 20
66.463264
 30
0.0
 11
151.085545
 21
66.463191
 31
0.0
  0
LINE
  5
1E9
330
10D
100
AcDbEntity
  8
0
  6
CONTINUOUS
 62
     7
100
AcDbLine
 10
151.085545
 20
66.463191
 30
0.0
 11
151.083215
 21
66.463118
 31
0.0
  0
LINE
  5
1EA
330
10D
100
AcDbEntity
  8
0
  6
CONTINUOUS
 62
     7
100
AcDbLine
 10
151.083215
 20
66.463118
 30
0.0
 11
151.080882
 21
66.463046
 31
0.0
  0
LINE
  5
1EB
330
10D
100
AcDbEntity
  8
0
  6
CONTINUOUS
 62
     7
100
AcDbLine
 10
151.080882
 20
66.463046
 30
0.0
 11
151.078547
 21
66.462974
 31
0.0
  0
LINE
  5
1EC
330
10D
100
AcDbEntity
  8
0
  6
CONTINUOUS
 62
     7
100
AcDbLine
 10
151.078547
 20
66.462974
 30
0.0
 11
151.076208
 21
66.462903
 31
0.0
  0
LINE
  5
1ED
330
10D
100
AcDbEntity
  8
0
  6
CONTINUOUS
 62
     7
100
AcDbLine
 10
151.076208
 20
66.462903
 30
0.0
 11
151.073867
 21
66.462832
 31
0.0
  0
LINE
  5
1EE
330
10D
100
AcDbEntity
  8
0
  6
CONTINUOUS
 62
     7
100
AcDbLine
 10
151.073867
 20
66.462832
 30
0.0
 11
151.071523
 21
66.462763
 31
0.0
  0
LINE
  5
1EF
330
10D
100
AcDbEntity
  8
0
  6
CONTINUOUS
 62
     7
100
AcDbLine
 10
151.071523
 20
66.462763
 30
0.0
 11
151.069176
 21
66.462693
 31
0.0
  0
LINE
  5
1F0
330
10D
100
AcDbEntity
  8
0
  6
CONTINUOUS
 62
     7
100
AcDbLine
 10
151.069176
 20
66.462693
 30
0.0
 11
151.066827
 21
66.462625
 31
0.0
  0
LINE
  5
1F1
330
10D
100
AcDbEntity
  8
0
  6
CONTINUOUS
 62
     7
100
AcDbLine
 10
151.066827
 20
66.462625
 30
0.0
 11
151.064475
 21
66.462557
 31
0.0
  0
LINE
  5
1F2
330
10D
100
AcDbEntity
  8
0
  6
CONTINUOUS
 62
     7
100
AcDbLine
 10
151.064475
 20
66.462557
 30
0.0
 11
151.06212
 21
66.462489
 31
0.0
  0
LINE
  5
1F3
330
10D
100
AcDbEntity
  8
0
  6
CONTINUOUS
 62
     7
100
AcDbLine
 10
151.06212
 20
66.462489
 30
0.0
 11
151.059763
 21
66.462422
 31
0.0
  0
LINE
  5
1F4
330
10D
100
AcDbEntity
  8
0
  6
CONTINUOUS
 62
     7
100
AcDbLine
 10
151.059763
 20
66.462422
 30
0.0
 11
151.057403
 21
66.462356
 31
0.0
  0
LINE
  5
1F5
330
10D
100
AcDbEntity
  8
0
  6
CONTINUOUS
 62
     7
100
AcDbLine
 10
151.057403
 20
66.462356
 30
0.0
 11
151.055041
 21
66.462291
 31
0.0
  0
LINE
  5
1F6
330
10D
100
AcDbEntity
  8
0
  6
CONTINUOUS
 62
     7
100
AcDbLine
 10
151.055041
 20
66.462291
 30
0.0
 11
151.052676
 21
66.462226
 31
0.0
  0
LINE
  5
1F7
330
10D
100
AcDbEntity
  8
0
  6
CONTINUOUS
 62
     7
100
AcDbLine
 10
151.052676
 20
66.462226
 30
0.0
 11
151.050308
 21
66.462162
 31
0.0
  0
LINE
  5
1F8
330
10D
100
AcDbEntity
  8
0
  6
CONTINUOUS
 62
     7
100
AcDbLine
 10
151.050308
 20
66.462162
 30
0.0
 11
151.047938
 21
66.462099
 31
0.0
  0
LINE
  5
1F9
330
10D
100
AcDbEntity
  8
0
  6
CONTINUOUS
 62
     7
100
AcDbLine
 10
151.047938
 20
66.462099
 30
0.0
 11
151.045566
 21
66.462036
 31
0.0
  0
LINE
  5
1FA
330
10D
100
AcDbEntity
  8
0
  6
CONTINUOUS
 62
     7
100
AcDbLine
 10
151.045566
 20
66.462036
 30
0.0
 11
151.043191
 21
66.461974
 31
0.0
  0
LINE
  5
1FB
330
10D
100
AcDbEntity
  8
0
  6
CONTINUOUS
 62
     7
100
AcDbLine
 10
151.043191
 20
66.461974
 30
0.0
 11
151.040814
 21
66.461912
 31
0.0
  0
LINE
  5
1FC
330
10D
100
AcDbEntity
  8
0
  6
CONTINUOUS
 62
     7
100
AcDbLine
 10
151.040814
 20
66.461912
 30
0.0
 11
151.038435
 21
66.461851
 31
0.0
  0
LINE
  5
1FD
330
10D
100
AcDbEntity
  8
0
  6
CONTINUOUS
 62
     7
100
AcDbLine
 10
151.038435
 20
66.461851
 30
0.0
 11
151.036053
 21
66.461791
 31
0.0
  0
LINE
  5
1FE
330
10D
100
AcDbEntity
  8
0
  6
CONTINUOUS
 62
     7
100
AcDbLine
 10
151.036053
 20
66.461791
 30
0.0
 11
151.033669
 21
66.461732
 31
0.0
  0
LINE
  5
1FF
330
10D
100
AcDbEntity
  8
0
  6
CONTINUOUS
 62
     7
100
AcDbLine
 10
151.033669
 20
66.461732
 30
0.0
 11
151.031282
 21
66.461673
 31
0.0
  0
LINE
  5
200
330
10D
100
AcDbEntity
  8
0
  6
CONTINUOUS
 62
     7
100
AcDbLine
 10
151.031282
 20
66.461673
 30
0.0
 11
151.028894
 21
66.461616
 31
0.0
  0
LINE
  5
201
330
10D
100
AcDbEntity
  8
0
  6
CONTINUOUS
 62
     7
100
AcDbLine
 10
151.028894
 20
66.461616
 30
0.0
 11
151.026503
 21
66.461558
 31
0.0
  0
LINE
  5
202
330
10D
100
AcDbEntity
  8
0
  6
CONTINUOUS
 62
     7
100
AcDbLine
 10
151.026503
 20
66.461558
 30
0.0
 11
151.02411
 21
66.461502
 31
0.0
  0
LINE
  5
203
330
10D
100
AcDbEntity
  8
0
  6
CONTINUOUS
 62
     7
100
AcDbLine
 10
151.02411
 20
66.461502
 30
0.0
 11
151.021715
 21
66.461446
 31
0.0
  0
LINE
  5
204
330
10D
100
AcDbEntity
  8
0
  6
CONTINUOUS
 62
     7
100
AcDbLine
 10
151.021715
 20
66.461446
 30
0.0
 11
151.019318
 21
66.461391
 31
0.0
  0
LINE
  5
205
330
10D
100
AcDbEntity
  8
0
  6
CONTINUOUS
 62
     7
100
AcDbLine
 10
151.019318
 20
66.461391
 30
0.0
 11
151.016919
 21
66.461337
 31
0.0
  0
LINE
  5
206
330
10D
100
AcDbEntity
  8
0
  6
CONTINUOUS
 62
     7
100
AcDbLine
 10
151.016919
 20
66.461337
 30
0.0
 11
151.014518
 21
66.461283
 31
0.0
  0
LINE
  5
207
330
10D
100
AcDbEntity
  8
0
  6
CONTINUOUS
 62
     7
100
AcDbLine
 10
151.014518
 20
66.461283
 30
0.0
 11
151.012114
 21
66.461231
 31
0.0
  0
LINE
  5
208
330
10D
100
AcDbEntity
  8
0
  6
CONTINUOUS
 62
     7
100
AcDbLine
 10
151.012114
 20
66.461231
 30
0.0
 11
151.009709
 21
66.461179
 31
0.0
  0
LINE
  5
209
330
10D
100
AcDbEntity
  8
0
  6
CONTINUOUS
 62
     7
100
AcDbLine
 10
151.009709
 20
66.461179
 30
0.0
 11
151.007302
 21
66.461127
 31
0.0
  0
LINE
  5
20A
330
10D
100
AcDbEntity
  8
0
  6
CONTINUOUS
 62
     7
100
AcDbLine
 10
151.007302
 20
66.461127
 30
0.0
 11
151.004893
 21
66.461077
 31
0.0
  0
LINE
  5
20B
330
10D
100
AcDbEntity
  8
0
  6
CONTINUOUS
 62
     7
100
AcDbLine
 10
151.004893
 20
66.461077
 30
0.0
 11
151.002482
 21
66.461027
 31
0.0
  0
LINE
  5
20C
330
10D
100
AcDbEntity
  8
0
  6
CONTINUOUS
 62
     7
100
AcDbLine
 10
151.002482
 20
66.461027
 30
0.0
 11
151.000069
 21
66.460978
 31
0.0
  0
LINE
  5
20D
330
10D
100
AcDbEntity
  8
0
  6
CONTINUOUS
 62
     7
100
AcDbLine
 10
151.000069
 20
66.460978
 30
0.0
 11
150.997654
 21
66.46093
 31
0.0
  0
LINE
  5
20E
330
10D
100
AcDbEntity
  8
0
  6
CONTINUOUS
 62
     7
100
AcDbLine
 10
150.997654
 20
66.46093
 30
0.0
 11
150.995238
 21
66.460883
 31
0.0
  0
LINE
  5
20F
330
10D
100
AcDbEntity
  8
0
  6
CONTINUOUS
 62
     7
100
AcDbLine
 10
150.995238
 20
66.460883
 30
0.0
 11
150.99282
 21
66.460836
 31
0.0
  0
LINE
  5
210
330
10D
100
AcDbEntity
  8
0
  6
CONTINUOUS
 62
     7
100
AcDbLine
 10
150.99282
 20
66.460836
 30
0.0
 11
150.990399
 21
66.46079
 31
0.0
  0
LINE
  5
211
330
10D
100
AcDbEntity
  8
0
  6
CONTINUOUS
 62
     7
100
AcDbLine
 10
150.990399
 20
66.46079
 30
0.0
 11
150.987978
 21
66.460746
 31
0.0
  0
LINE
  5
212
330
10D
100
AcDbEntity
  8
0
  6
CONTINUOUS
 62
     7
100
AcDbLine
 10
150.987978
 20
66.460746
 30
0.0
 11
150.985554
 21
66.460701
 31
0.0
  0
LINE
  5
213
330
10D
100
AcDbEntity
  8
0
  6
CONTINUOUS
 62
     7
100
AcDbLine
 10
150.985554
 20
66.460701
 30
0.0
 11
150.983129
 21
66.460658
 31
0.0
  0
LINE
  5
214
330
10D
100
AcDbEntity
  8
0
  6
CONTINUOUS
 62
     7
100
AcDbLine
 10
150.983129
 20
66.460658
 30
0.0
 11
150.980703
 21
66.460616
 31
0.0
  0
LINE
  5
215
330
10D
100
AcDbEntity
  8
0
  6
CONTINUOUS
 62
     7
100
AcDbLine
 10
150.980703
 20
66.460616
 30
0.0
 11
150.978274
 21
66.460574
 31
0.0
  0
LINE
  5
216
330
10D
100
AcDbEntity
  8
0
  6
CONTINUOUS
 62
     7
100
AcDbLine
 10
150.978274
 20
66.460574
 30
0.0
 11
150.975844
 21
66.460533
 31
0.0
  0
LINE
  5
217
330
10D
100
AcDbEntity
  8
0
  6
CONTINUOUS
 62
     7
100
AcDbLine
 10
150.975844
 20
66.460533
 30
0.0
 11
150.973413
 21
66.460493
 31
0.0
  0
LINE
  5
218
330
10D
100
AcDbEntity
  8
0
  6
CONTINUOUS
 62
     7
100
AcDbLine
 10
150.973413
 20
66.460493
 30
0.0
 11
150.970918
 21
66.460453
 31
0.0
  0
LINE
  5
219
330
10D
100
AcDbEntity
  8
0
  6
CONTINUOUS
 62
     7
100
AcDbLine
 10
150.970918
 20
66.460453
 30
0.0
 11
150.968422
 21
66.460414
 31
0.0
  0
LINE
  5
21A
330
10D
100
AcDbEntity
  8
0
  6
CONTINUOUS
 62
     7
100
AcDbLine
 10
150.968422
 20
66.460414
 30
0.0
 11
150.965924
 21
66.460375
 31
0.0
  0
LINE
  5
21B
330
10D
100
AcDbEntity
  8
0
  6
CONTINUOUS
 62
     7
100
AcDbLine
 10
150.965924
 20
66.460375
 30
0.0
 11
150.963425
 21
66.460338
 31
0.0
  0
LINE
  5
21C
330
10D
100
AcDbEntity
  8
0
  6
CONTINUOUS
 62
     7
100
AcDbLine
 10
150.963425
 20
66.460338
 30
0.0
 11
150.960924
 21
66.460301
 31
0.0
  0
LINE
  5
21D
330
10D
100
AcDbEntity
  8
0
  6
CONTINUOUS
 62
     7
100
AcDbLine
 10
150.960924
 20
66.460301
 30
0.0
 11
150.958421
 21
66.460265
 31
0.0
  0
LINE
  5
21E
330
10D
100
AcDbEntity
  8
0
  6
CONTINUOUS
 62
     7
100
AcDbLine
 10
150.958421
 20
66.460265
 30
0.0
 11
150.955918
 21
66.46023
 31
0.0
  0
LINE
  5
21F
330
10D
100
AcDbEntity
  8
0
  6
CONTINUOUS
 62
     7
100
AcDbLine
 10
150.955918
 20
66.46023
 30
0.0
 11
150.953413
 21
66.460196
 31
0.0
  0
LINE
  5
220
330
10D
100
AcDbEntity
  8
0
  6
CONTINUOUS
 62
     7
100
AcDbLine
 10
150.953413
 20
66.460196
 30
0.0
 11
150.950906
 21
66.460163
 31
0.0
  0
LINE
  5
221
330
10D
100
AcDbEntity
  8
0
  6
CONTINUOUS
 62
     7
100
AcDbLine
 10
150.950906
 20
66.460163
 30
0.0
 11
150.948398
 21
66.46013
 31
0.0
  0
LINE
  5
222
330
10D
100
AcDbEntity
  8
0
  6
CONTINUOUS
 62
     7
100
AcDbLine
 10
150.948398
 20
66.46013
 30
0.0
 11
150.945889
 21
66.460098
 31
0.0
  0
LINE
  5
223
330
10D
100
AcDbEntity
  8
0
  6
CONTINUOUS
 62
     7
100
AcDbLine
 10
150.945889
 20
66.460098
 30
0.0
 11
150.943378
 21
66.460067
 31
0.0
  0
LINE
  5
224
330
10D
100
AcDbEntity
  8
0
  6
CONTINUOUS
 62
     7
100
AcDbLine
 10
150.943378
 20
66.460067
 30
0.0
 11
150.940867
 21
66.460036
 31
0.0
  0
LINE
  5
225
330
10D
100
AcDbEntity
  8
0
  6
CONTINUOUS
 62
     7
100
AcDbLine
 10
150.940867
 20
66.460036
 30
0.0
 11
150.938353
 21
66.460006
 31
0.0
  0
LINE
  5
226
330
10D
100
AcDbEntity
  8
0
  6
CONTINUOUS
 62
     7
100
AcDbLine
 10
150.938353
 20
66.460006
 30
0.0
 11
150.935839
 21
66.459977
 31
0.0
  0
LINE
  5
227
330
10D
100
AcDbEntity
  8
0
  6
CONTINUOUS
 62
     7
100
AcDbLine
 10
150.935839
 20
66.459977
 30
0.0
 11
150.933324
 21
66.459949
 31
0.0
  0
LINE
  5
228
330
10D
100
AcDbEntity
  8
0
  6
CONTINUOUS
 62
     7
100
AcDbLine
 10
150.933324
 20
66.459949
 30
0.0
 11
150.930807
 21
66.459921
 31
0.0
  0
LINE
  5
229
330
10D
100
AcDbEntity
  8
0
  6
CONTINUOUS
 62
     7
100
AcDbLine
 10
150.930807
 20
66.459921
 30
0.0
 11
150.928289
 21
66.459894
 31
0.0
  0
LINE
  5
22A
330
10D
100
AcDbEntity
  8
0
  6
CONTINUOUS
 62
     7
100
AcDbLine
 10
150.928289
 20
66.459894
 30
0.0
 11
150.92577
 21
66.459868
 31
0.0
  0
LINE
  5
22B
330
10D
100
AcDbEntity
  8
0
  6
CONTINUOUS
 62
     7
100
AcDbLine
 10
150.92577
 20
66.459868
 30
0.0
 11
150.92325
 21
66.459842
 31
0.0
  0
LINE
  5
22C
330
10D
100
AcDbEntity
  8
0
  6
CONTINUOUS
 62
     7
100
AcDbLine
 10
150.92325
 20
66.459842
 30
0.0
 11
150.920729
 21
66.459817
 31
0.0
  0
LINE
  5
22D
330
10D
100
AcDbEntity
  8
0
  6
CONTINUOUS
 62
     7
100
AcDbLine
 10
150.920729
 20
66.459817
 30
0.0
 11
150.918206
 21
66.459792
 31
0.0
  0
LINE
  5
22E
330
10D
100
AcDbEntity
  8
0
  6
CONTINUOUS
 62
     7
100
AcDbLine
 10
150.918206
 20
66.459792
 30
0.0
 11
150.915683
 21
66.459768
 31
0.0
  0
LINE
  5
22F
330
10D
100
AcDbEntity
  8
0
  6
CONTINUOUS
 62
     7
100
AcDbLine
 10
150.915683
 20
66.459768
 30
0.0
 11
150.913159
 21
66.459745
 31
0.0
  0
LINE
  5
230
330
10D
100
AcDbEntity
  8
0
  6
CONTINUOUS
 62
     7
100
AcDbLine
 10
150.913159
 20
66.459745
 30
0.0
 11
150.910633
 21
66.459722
 31
0.0
  0
LINE
  5
231
330
10D
100
AcDbEntity
  8
0
  6
CONTINUOUS
 62
     7
100
AcDbLine
 10
150.910633
 20
66.459722
 30
0.0
 11
150.908107
 21
66.459699
 31
0.0
  0
LINE
  5
232
330
10D
100
AcDbEntity
  8
0
  6
CONTINUOUS
 62
     7
100
AcDbLine
 10
150.908107
 20
66.459699
 30
0.0
 11
150.90558
 21
66.459678
 31
0.0
  0
LINE
  5
233
330
10D
100
AcDbEntity
  8
0
  6
CONTINUOUS
 62
     7
100
AcDbLine
 10
150.90558
 20
66.459678
 30
0.0
 11
150.903052
 21
66.459656
 31
0.0
  0
LINE
  5
234
330
10D
100
AcDbEntity
  8
0
  6
CONTINUOUS
 62
     7
100
AcDbLine
 10
150.903052
 20
66.459656
 30
0.0
 11
150.900523
 21
66.459635
 31
0.0
  0
LINE
  5
235
330
10D
100
AcDbEntity
  8
0
  6
CONTINUOUS
 62
     7
100
AcDbLine
 10
150.900523
 20
66.459635
 30
0.0
 11
150.897993
 21
66.459615
 31
0.0
  0
LINE
  5
236
330
10D
100
AcDbEntity
  8
0
  6
CONTINUOUS
 62
     7
100
AcDbLine
 10
150.897993
 20
66.459615
 30
0.0
 11
150.895462
 21
66.459595
 31
0.0
  0
LINE
  5
237
330
10D
100
AcDbEntity
  8
0
  6
CONTINUOUS
 62
     7
100
AcDbLine
 10
150.895462
 20
66.459595
 30
0.0
 11
150.892931
 21
66.459576
 31
0.0
  0
LINE
  5
238
330
10D
100
AcDbEntity
  8
0
  6
CONTINUOUS
 62
     7
100
AcDbLine
 10
150.892931
 20
66.459576
 30
0.0
 11
150.890398
 21
66.459557
 31
0.0
  0
LINE
  5
239
330
10D
100
AcDbEntity
  8
0
  6
CONTINUOUS
 62
     7
100
AcDbLine
 10
150.890398
 20
66.459557
 30
0.0
 11
150.887865
 21
66.459538
 31
0.0
  0
LINE
  5
23A
330
10D
100
AcDbEntity
  8
0
  6
CONTINUOUS
 62
     7
100
AcDbLine
 10
150.887865
 20
66.459538
 30
0.0
 11
150.885331
 21
66.45952
 31
0.0
  0
LINE
  5
23B
330
10D
100
AcDbEntity
  8
0
  6
CONTINUOUS
 62
     7
100
AcDbLine
 10
150.885331
 20
66.45952
 30
0.0
 11
150.882797
 21
66.459503
 31
0.0
  0
LINE
  5
23C
330
10D
100
AcDbEntity
  8
0
  6
CONTINUOUS
 62
     7
100
AcDbLine
 10
150.882797
 20
66.459503
 30
0.0
 11
150.880262
 21
66.459485
 31
0.0
  0
LINE
  5
23D
330
10D
100
AcDbEntity
  8
0
  6
CONTINUOUS
 62
     7
100
AcDbLine
 10
150.880262
 20
66.459485
 30
0.0
 11
150.877726
 21
66.459468
 31
0.0
  0
LINE
  5
23E
330
10D
100
AcDbEntity
  8
0
  6
CONTINUOUS
 62
     7
100
AcDbLine
 10
150.877726
 20
66.459468
 30
0.0
 11
150.875189
 21
66.459452
 31
0.0
  0
LINE
  5
23F
330
10D
100
AcDbEntity
  8
0
  6
CONTINUOUS
 62
     7
100
AcDbLine
 10
150.875189
 20
66.459452
 30
0.0
 11
150.872652
 21
66.459436
 31
0.0
  0
LINE
  5
240
330
10D
100
AcDbEntity
  8
0
  6
CONTINUOUS
 62
     7
100
AcDbLine
 10
150.872652
 20
66.459436
 30
0.0
 11
150.867576
 21
66.459404
 31
0.0
  0
LINE
  5
241
330
10D
100
AcDbEntity
  8
0
  6
CONTINUOUS
 62
     7
100
AcDbLine
 10
150.867576
 20
66.459404
 30
0.0
 11
150.862497
 21
66.459374
 31
0.0
  0
LINE
  5
242
330
10D
100
AcDbEntity
  8
0
  6
CONTINUOUS
 62
     7
100
AcDbLine
 10
150.862497
 20
66.459374
 30
0.0
 11
150.857417
 21
66.459345
 31
0.0
  0
LINE
  5
243
330
10D
100
AcDbEntity
  8
0
  6
CONTINUOUS
 62
     7
100
AcDbLine
 10
150.857417
 20
66.459345
 30
0.0
 11
150.852335
 21
66.459317
 31
0.0
  0
LINE
  5
244
330
10D
100
AcDbEntity
  8
0
  6
CONTINUOUS
 62
     7
100
AcDbLine
 10
150.852335
 20
66.459317
 30
0.0
 11
150.847252
 21
66.45929
 31
0.0
  0
LINE
  5
245
330
10D
100
AcDbEntity
  8
0
  6
CONTINUOUS
 62
     7
100
AcDbLine
 10
150.847252
 20
66.45929
 30
0.0
 11
150.842167
 21
66.459263
 31
0.0
  0
LINE
  5
246
330
10D
100
AcDbEntity
  8
0
  6
CONTINUOUS
 62
     7
100
AcDbLine
 10
150.842167
 20
66.459263
 30
0.0
 11
150.83708
 21
66.459237
 31
0.0
  0
LINE
  5
247
330
10D
100
AcDbEntity
  8
0
  6
CONTINUOUS
 62
     7
100
AcDbLine
 10
150.83708
 20
66.459237
 30
0.0
 11
150.831993
 21
66.459212
 31
0.0
  0
LINE
  5
248
330
10D
100
AcDbEntity
  8
0
  6
CONTINUOUS
 62
     7
100
AcDbLine
 10
150.831993
 20
66.459212
 30
0.0
 11
150.826905
 21
66.459188
 31
0.0
  0
LINE
  5
249
330
10D
100
AcDbEntity
  8
0
  6
CONTINUOUS
 62
     7
100
AcDbLine
 10
150.826905
 20
66.459188
 30
0.0
 11
150.821817
 21
66.459163
 31
0.0
  0
LINE
  5
24A
330
10D
100
AcDbEntity
  8
0
  6
CONTINUOUS
 62
     7
100
AcDbLine
 10
150.821817
 20
66.459163
 30
0.0
 11
150.811639
 21
66.459115
 31
0.0
  0
ENDBLK
  5
10F
330
10D
100
AcDbEntity
  8
0
100
AcDbBlockEnd
  0
BLOCK
  5
24C
330
24B
100
AcDbEntity
  8
0
100
AcDbBlockBegin
  2
BLKF013
 70
     0
 71
     0
 10
0.0
 20
0.0
 30
0.0
  3
BLKF013
  1

  0
LINE
  5
24F
330
24B
100
AcDbEntity
  8
0
  6
CONTINUOUS
 62
     7
100
AcDbLine
 10
149.97777
 20
47.596727
 30
0.0
 11
149.977688
 21
47.596719
 31
0.0
  0
LINE
  5
250
330
24B
100
AcDbEntity
  8
0
  6
CONTINUOUS
 62
     7
100
AcDbLine
 10
149.977688
 20
47.596719
 30
0.0
 11
149.993311
 21
47.598151
 31
0.0
  0
LINE
  5
251
330
24B
100
AcDbEntity
  8
0
  6
CONTINUOUS
 62
     7
100
AcDbLine
 10
149.993311
 20
47.598151
 30
0.0
 11
150.040198
 21
47.602049
 31
0.0
  0
LINE
  5
252
330
24B
100
AcDbEntity
  8
0
  6
CONTINUOUS
 62
     7
100
AcDbLine
 10
150.040198
 20
47.602049
 30
0.0
 11
150.227722
 21
47.615212
 31
0.0
  0
LINE
  5
253
330
24B
100
AcDbEntity
  8
0
  6
CONTINUOUS
 62
     7
100
AcDbLine
 10
150.227722
 20
47.615212
 30
0.0
 11
150.498461
 21
47.62891
 31
0.0
  0
LINE
  5
254
330
24B
100
AcDbEntity
  8
0
  6
CONTINUOUS
 62
     7
100
AcDbLine
 10
150.498461
 20
47.62891
 30
0.0
 11
150.649894
 21
47.632927
 31
0.0
  0
LINE
  5
255
330
24B
100
AcDbEntity
  8
0
  6
CONTINUOUS
 62
     7
100
AcDbLine
 10
150.649894
 20
47.632927
 30
0.0
 11
150.812033
 21
47.634323
 31
0.0
  0
LINE
  5
256
330
24B
100
AcDbEntity
  8
0
  6
CONTINUOUS
 62
     7
100
AcDbLine
 10
150.812033
 20
47.634323
 30
0.0
 11
150.973666
 21
47.632932
 31
0.0
  0
LINE
  5
257
330
24B
100
AcDbEntity
  8
0
  6
CONTINUOUS
 62
     7
100
AcDbLine
 10
150.973666
 20
47.632932
 30
0.0
 11
151.124891
 21
47.628903
 31
0.0
  0
LINE
  5
258
330
24B
100
AcDbEntity
  8
0
  6
CONTINUOUS
 62
     7
100
AcDbLine
 10
151.124891
 20
47.628903
 30
0.0
 11
151.396092
 21
47.615148
 31
0.0
  0
LINE
  5
259
330
24B
100
AcDbEntity
  8
0
  6
CONTINUOUS
 62
     7
100
AcDbLine
 10
151.396092
 20
47.615148
 30
0.0
 11
151.583273
 21
47.602019
 31
0.0
  0
LINE
  5
25A
330
24B
100
AcDbEntity
  8
0
  6
CONTINUOUS
 62
     7
100
AcDbLine
 10
151.583273
 20
47.602019
 30
0.0
 11
151.63004
 21
47.598135
 31
0.0
  0
LINE
  5
25B
330
24B
100
AcDbEntity
  8
0
  6
CONTINUOUS
 62
     7
100
AcDbLine
 10
151.63004
 20
47.598135
 30
0.0
 11
151.645597
 21
47.596719
 31
0.0
  0
ENDBLK
  5
24D
330
24B
100
AcDbEntity
  8
0
100
AcDbBlockEnd
  0
BLOCK
  5
262
330
261
100
AcDbEntity
  8
0
100
AcDbBlockBegin
  2
BLKF014
 70
     0
 71
     0
 10
0.0
 20
0.0
 30
0.0
  3
BLKF014
  1

  0
LINE
  5
265
330
261
100
AcDbEntity
  8
0
  6
CONTINUOUS
 62
     7
100
AcDbLine
 10
72.388029
 20
66.479582
 30
0.0
 11
72.410744
 21
66.47822
 31
0.0
  0
LINE
  5
266
330
261
100
AcDbEntity
  8
0
  6
CONTINUOUS
 62
     7
100
AcDbLine
 10
72.410744
 20
66.47822
 30
0.0
 11
72.433638
 21
66.47688
 31
0.0
  0
LINE
  5
267
330
261
100
AcDbEntity
  8
0
  6
CONTINUOUS
 62
     7
100
AcDbLine
 10
72.433638
 20
66.47688
 30
0.0
 11
72.44521
 21
66.476224
 31
0.0
  0
LINE
  5
268
330
261
100
AcDbEntity
  8
0
  6
CONTINUOUS
 62
     7
100
AcDbLine
 10
72.44521
 20
66.476224
 30
0.0
 11
72.456895
 21
66.475581
 31
0.0
  0
LINE
  5
269
330
261
100
AcDbEntity
  8
0
  6
CONTINUOUS
 62
     7
100
AcDbLine
 10
72.456895
 20
66.475581
 30
0.0
 11
72.468716
 21
66.474954
 31
0.0
  0
LINE
  5
26A
330
261
100
AcDbEntity
  8
0
  6
CONTINUOUS
 62
     7
100
AcDbLine
 10
72.468716
 20
66.474954
 30
0.0
 11
72.480694
 21
66.474345
 31
0.0
  0
LINE
  5
26B
330
261
100
AcDbEntity
  8
0
  6
CONTINUOUS
 62
     7
100
AcDbLine
 10
72.480694
 20
66.474345
 30
0.0
 11
72.492854
 21
66.473756
 31
0.0
  0
LINE
  5
26C
330
261
100
AcDbEntity
  8
0
  6
CONTINUOUS
 62
     7
100
AcDbLine
 10
72.492854
 20
66.473756
 30
0.0
 11
72.505217
 21
66.473191
 31
0.0
  0
LINE
  5
26D
330
261
100
AcDbEntity
  8
0
  6
CONTINUOUS
 62
     7
100
AcDbLine
 10
72.505217
 20
66.473191
 30
0.0
 11
72.517806
 21
66.472652
 31
0.0
  0
LINE
  5
26E
330
261
100
AcDbEntity
  8
0
  6
CONTINUOUS
 62
     7
100
AcDbLine
 10
72.517806
 20
66.472652
 30
0.0
 11
72.530644
 21
66.472142
 31
0.0
  0
LINE
  5
26F
330
261
100
AcDbEntity
  8
0
  6
CONTINUOUS
 62
     7
100
AcDbLine
 10
72.530644
 20
66.472142
 30
0.0
 11
72.543753
 21
66.471662
 31
0.0
  0
LINE
  5
270
330
261
100
AcDbEntity
  8
0
  6
CONTINUOUS
 62
     7
100
AcDbLine
 10
72.543753
 20
66.471662
 30
0.0
 11
72.557155
 21
66.471217
 31
0.0
  0
LINE
  5
271
330
261
100
AcDbEntity
  8
0
  6
CONTINUOUS
 62
     7
100
AcDbLine
 10
72.557155
 20
66.471217
 30
0.0
 11
72.570875
 21
66.470807
 31
0.0
  0
LINE
  5
272
330
261
100
AcDbEntity
  8
0
  6
CONTINUOUS
 62
     7
100
AcDbLine
 10
72.570875
 20
66.470807
 30
0.0
 11
72.584933
 21
66.470437
 31
0.0
  0
LINE
  5
273
330
261
100
AcDbEntity
  8
0
  6
CONTINUOUS
 62
     7
100
AcDbLine
 10
72.584933
 20
66.470437
 30
0.0
 11
72.593111
 21
66.470241
 31
0.0
  0
ENDBLK
  5
263
330
261
100
AcDbEntity
  8
0
100
AcDbBlockEnd
  0
BLOCK
  5
275
330
274
100
AcDbEntity
  8
0
100
AcDbBlockBegin
  2
BLKF015
 70
     0
 71
     0
 10
0.0
 20
0.0
 30
0.0
  3
BLKF015
  1

  0
LINE
  5
278
330
274
100
AcDbEntity
  8
0
  6
CONTINUOUS
 62
     7
100
AcDbLine
 10
73.783834
 20
66.496499
 30
0.0
 11
73.786445
 21
66.496704
 31
0.0
  0
LINE
  5
279
330
274
100
AcDbEntity
  8
0
  6
CONTINUOUS
 62
     7
100
AcDbLine
 10
73.786445
 20
66.496704
 30
0.0
 11
73.788273
 21
66.496838
 31
0.0
  0
LINE
  5
27A
330
274
100
AcDbEntity
  8
0
  6
CONTINUOUS
 62
     7
100
AcDbLine
 10
73.788273
 20
66.496838
 30
0.0
 11
73.778943
 21
66.496094
 31
0.0
  0
LINE
  5
27B
330
274
100
AcDbEntity
  8
0
  6
CONTINUOUS
 62
     7
100
AcDbLine
 10
73.778943
 20
66.496094
 30
0.0
 11
73.761255
 21
66.494711
 31
0.0
  0
LINE
  5
27C
330
274
100
AcDbEntity
  8
0
  6
CONTINUOUS
 62
     7
100
AcDbLine
 10
73.761255
 20
66.494711
 30
0.0
 11
73.75015
 21
66.493854
 31
0.0
  0
LINE
  5
27D
330
274
100
AcDbEntity
  8
0
  6
CONTINUOUS
 62
     7
100
AcDbLine
 10
73.75015
 20
66.493854
 30
0.0
 11
73.738005
 21
66.492927
 31
0.0
  0
LINE
  5
27E
330
274
100
AcDbEntity
  8
0
  6
CONTINUOUS
 62
     7
100
AcDbLine
 10
73.738005
 20
66.492927
 30
0.0
 11
73.725089
 21
66.491955
 31
0.0
  0
LINE
  5
27F
330
274
100
AcDbEntity
  8
0
  6
CONTINUOUS
 62
     7
100
AcDbLine
 10
73.725089
 20
66.491955
 30
0.0
 11
73.711424
 21
66.490942
 31
0.0
  0
LINE
  5
280
330
274
100
AcDbEntity
  8
0
  6
CONTINUOUS
 62
     7
100
AcDbLine
 10
73.711424
 20
66.490942
 30
0.0
 11
73.696952
 21
66.489891
 31
0.0
  0
LINE
  5
281
330
274
100
AcDbEntity
  8
0
  6
CONTINUOUS
 62
     7
100
AcDbLine
 10
73.696952
 20
66.489891
 30
0.0
 11
73.681616
 21
66.488801
 31
0.0
  0
LINE
  5
282
330
274
100
AcDbEntity
  8
0
  6
CONTINUOUS
 62
     7
100
AcDbLine
 10
73.681616
 20
66.488801
 30
0.0
 11
73.673607
 21
66.488242
 31
0.0
  0
LINE
  5
283
330
274
100
AcDbEntity
  8
0
  6
CONTINUOUS
 62
     7
100
AcDbLine
 10
73.673607
 20
66.488242
 30
0.0
 11
73.665359
 21
66.487673
 31
0.0
  0
LINE
  5
284
330
274
100
AcDbEntity
  8
0
  6
CONTINUOUS
 62
     7
100
AcDbLine
 10
73.665359
 20
66.487673
 30
0.0
 11
73.656868
 21
66.487095
 31
0.0
  0
LINE
  5
285
330
274
100
AcDbEntity
  8
0
  6
CONTINUOUS
 62
     7
100
AcDbLine
 10
73.656868
 20
66.487095
 30
0.0
 11
73.648124
 21
66.486508
 31
0.0
  0
LINE
  5
286
330
274
100
AcDbEntity
  8
0
  6
CONTINUOUS
 62
     7
100
AcDbLine
 10
73.648124
 20
66.486508
 30
0.0
 11
73.639122
 21
66.485912
 31
0.0
  0
LINE
  5
287
330
274
100
AcDbEntity
  8
0
  6
CONTINUOUS
 62
     7
100
AcDbLine
 10
73.639122
 20
66.485912
 30
0.0
 11
73.629853
 21
66.485307
 31
0.0
  0
LINE
  5
288
330
274
100
AcDbEntity
  8
0
  6
CONTINUOUS
 62
     7
100
AcDbLine
 10
73.629853
 20
66.485307
 30
0.0
 11
73.620311
 21
66.484693
 31
0.0
  0
LINE
  5
289
330
274
100
AcDbEntity
  8
0
  6
CONTINUOUS
 62
     7
100
AcDbLine
 10
73.620311
 20
66.484693
 30
0.0
 11
73.610489
 21
66.48407
 31
0.0
  0
LINE
  5
28A
330
274
100
AcDbEntity
  8
0
  6
CONTINUOUS
 62
     7
100
AcDbLine
 10
73.610489
 20
66.48407
 30
0.0
 11
73.600081
 21
66.483419
 31
0.0
  0
LINE
  5
28B
330
274
100
AcDbEntity
  8
0
  6
CONTINUOUS
 62
     7
100
AcDbLine
 10
73.600081
 20
66.483419
 30
0.0
 11
73.589377
 21
66.482761
 31
0.0
  0
LINE
  5
28C
330
274
100
AcDbEntity
  8
0
  6
CONTINUOUS
 62
     7
100
AcDbLine
 10
73.589377
 20
66.482761
 30
0.0
 11
73.578385
 21
66.482096
 31
0.0
  0
LINE
  5
28D
330
274
100
AcDbEntity
  8
0
  6
CONTINUOUS
 62
     7
100
AcDbLine
 10
73.578385
 20
66.482096
 30
0.0
 11
73.567116
 21
66.481426
 31
0.0
  0
LINE
  5
28E
330
274
100
AcDbEntity
  8
0
  6
CONTINUOUS
 62
     7
100
AcDbLine
 10
73.567116
 20
66.481426
 30
0.0
 11
73.555576
 21
66.480752
 31
0.0
  0
LINE
  5
28F
330
274
100
AcDbEntity
  8
0
  6
CONTINUOUS
 62
     7
100
AcDbLine
 10
73.555576
 20
66.480752
 30
0.0
 11
73.543776
 21
66.480076
 31
0.0
  0
LINE
  5
290
330
274
100
AcDbEntity
  8
0
  6
CONTINUOUS
 62
     7
100
AcDbLine
 10
73.543776
 20
66.480076
 30
0.0
 11
73.531723
 21
66.479398
 31
0.0
  0
LINE
  5
291
330
274
100
AcDbEntity
  8
0
  6
CONTINUOUS
 62
     7
100
AcDbLine
 10
73.531723
 20
66.479398
 30
0.0
 11
73.519427
 21
66.478721
 31
0.0
  0
LINE
  5
292
330
274
100
AcDbEntity
  8
0
  6
CONTINUOUS
 62
     7
100
AcDbLine
 10
73.519427
 20
66.478721
 30
0.0
 11
73.506896
 21
66.478045
 31
0.0
  0
LINE
  5
293
330
274
100
AcDbEntity
  8
0
  6
CONTINUOUS
 62
     7
100
AcDbLine
 10
73.506896
 20
66.478045
 30
0.0
 11
73.494139
 21
66.477372
 31
0.0
  0
LINE
  5
294
330
274
100
AcDbEntity
  8
0
  6
CONTINUOUS
 62
     7
100
AcDbLine
 10
73.494139
 20
66.477372
 30
0.0
 11
73.481164
 21
66.476704
 31
0.0
  0
LINE
  5
295
330
274
100
AcDbEntity
  8
0
  6
CONTINUOUS
 62
     7
100
AcDbLine
 10
73.481164
 20
66.476704
 30
0.0
 11
73.467982
 21
66.476041
 31
0.0
  0
LINE
  5
296
330
274
100
AcDbEntity
  8
0
  6
CONTINUOUS
 62
     7
100
AcDbLine
 10
73.467982
 20
66.476041
 30
0.0
 11
73.454599
 21
66.475385
 31
0.0
  0
LINE
  5
297
330
274
100
AcDbEntity
  8
0
  6
CONTINUOUS
 62
     7
100
AcDbLine
 10
73.454599
 20
66.475385
 30
0.0
 11
73.441026
 21
66.474738
 31
0.0
  0
LINE
  5
298
330
274
100
AcDbEntity
  8
0
  6
CONTINUOUS
 62
     7
100
AcDbLine
 10
73.441026
 20
66.474738
 30
0.0
 11
73.42727
 21
66.474101
 31
0.0
  0
LINE
  5
299
330
274
100
AcDbEntity
  8
0
  6
CONTINUOUS
 62
     7
100
AcDbLine
 10
73.42727
 20
66.474101
 30
0.0
 11
73.413341
 21
66.473475
 31
0.0
  0
LINE
  5
29A
330
274
100
AcDbEntity
  8
0
  6
CONTINUOUS
 62
     7
100
AcDbLine
 10
73.413341
 20
66.473475
 30
0.0
 11
73.398671
 21
66.472837
 31
0.0
  0
LINE
  5
29B
330
274
100
AcDbEntity
  8
0
  6
CONTINUOUS
 62
     7
100
AcDbLine
 10
73.398671
 20
66.472837
 30
0.0
 11
73.383829
 21
66.472213
 31
0.0
  0
LINE
  5
29C
330
274
100
AcDbEntity
  8
0
  6
CONTINUOUS
 62
     7
100
AcDbLine
 10
73.383829
 20
66.472213
 30
0.0
 11
73.368819
 21
66.471604
 31
0.0
  0
LINE
  5
29D
330
274
100
AcDbEntity
  8
0
  6
CONTINUOUS
 62
     7
100
AcDbLine
 10
73.368819
 20
66.471604
 30
0.0
 11
73.353649
 21
66.471011
 31
0.0
  0
LINE
  5
29E
330
274
100
AcDbEntity
  8
0
  6
CONTINUOUS
 62
     7
100
AcDbLine
 10
73.353649
 20
66.471011
 30
0.0
 11
73.338324
 21
66.470436
 31
0.0
  0
LINE
  5
29F
330
274
100
AcDbEntity
  8
0
  6
CONTINUOUS
 62
     7
100
AcDbLine
 10
73.338324
 20
66.470436
 30
0.0
 11
73.32285
 21
66.469877
 31
0.0
  0
LINE
  5
2A0
330
274
100
AcDbEntity
  8
0
  6
CONTINUOUS
 62
     7
100
AcDbLine
 10
73.32285
 20
66.469877
 30
0.0
 11
73.307232
 21
66.469337
 31
0.0
  0
LINE
  5
2A1
330
274
100
AcDbEntity
  8
0
  6
CONTINUOUS
 62
     7
100
AcDbLine
 10
73.307232
 20
66.469337
 30
0.0
 11
73.291477
 21
66.468817
 31
0.0
  0
LINE
  5
2A2
330
274
100
AcDbEntity
  8
0
  6
CONTINUOUS
 62
     7
100
AcDbLine
 10
73.291477
 20
66.468817
 30
0.0
 11
73.27559
 21
66.468316
 31
0.0
  0
LINE
  5
2A3
330
274
100
AcDbEntity
  8
0
  6
CONTINUOUS
 62
     7
100
AcDbLine
 10
73.27559
 20
66.468316
 30
0.0
 11
73.259577
 21
66.467837
 31
0.0
  0
LINE
  5
2A4
330
274
100
AcDbEntity
  8
0
  6
CONTINUOUS
 62
     7
100
AcDbLine
 10
73.259577
 20
66.467837
 30
0.0
 11
73.243444
 21
66.467379
 31
0.0
  0
LINE
  5
2A5
330
274
100
AcDbEntity
  8
0
  6
CONTINUOUS
 62
     7
100
AcDbLine
 10
73.243444
 20
66.467379
 30
0.0
 11
73.227197
 21
66.466943
 31
0.0
  0
LINE
  5
2A6
330
274
100
AcDbEntity
  8
0
  6
CONTINUOUS
 62
     7
100
AcDbLine
 10
73.227197
 20
66.466943
 30
0.0
 11
73.210842
 21
66.466531
 31
0.0
  0
LINE
  5
2A7
330
274
100
AcDbEntity
  8
0
  6
CONTINUOUS
 62
     7
100
AcDbLine
 10
73.210842
 20
66.466531
 30
0.0
 11
73.194384
 21
66.466142
 31
0.0
  0
LINE
  5
2A8
330
274
100
AcDbEntity
  8
0
  6
CONTINUOUS
 62
     7
100
AcDbLine
 10
73.194384
 20
66.466142
 30
0.0
 11
73.186119
 21
66.465958
 31
0.0
  0
LINE
  5
2A9
330
274
100
AcDbEntity
  8
0
  6
CONTINUOUS
 62
     7
100
AcDbLine
 10
73.186119
 20
66.465958
 30
0.0
 11
73.17783
 21
66.465779
 31
0.0
  0
LINE
  5
2AA
330
274
100
AcDbEntity
  8
0
  6
CONTINUOUS
 62
     7
100
AcDbLine
 10
73.17783
 20
66.465779
 30
0.0
 11
73.169518
 21
66.465607
 31
0.0
  0
LINE
  5
2AB
330
274
100
AcDbEntity
  8
0
  6
CONTINUOUS
 62
     7
100
AcDbLine
 10
73.169518
 20
66.465607
 30
0.0
 11
73.161185
 21
66.465441
 31
0.0
  0
LINE
  5
2AC
330
274
100
AcDbEntity
  8
0
  6
CONTINUOUS
 62
     7
100
AcDbLine
 10
73.161185
 20
66.465441
 30
0.0
 11
73.152555
 21
66.465277
 31
0.0
  0
LINE
  5
2AD
330
274
100
AcDbEntity
  8
0
  6
CONTINUOUS
 62
     7
100
AcDbLine
 10
73.152555
 20
66.465277
 30
0.0
 11
73.143903
 21
66.46512
 31
0.0
  0
LINE
  5
2AE
330
274
100
AcDbEntity
  8
0
  6
CONTINUOUS
 62
     7
100
AcDbLine
 10
73.143903
 20
66.46512
 30
0.0
 11
73.13523
 21
66.46497
 31
0.0
  0
LINE
  5
2AF
330
274
100
AcDbEntity
  8
0
  6
CONTINUOUS
 62
     7
100
AcDbLine
 10
73.13523
 20
66.46497
 30
0.0
 11
73.126538
 21
66.464827
 31
0.0
  0
LINE
  5
2B0
330
274
100
AcDbEntity
  8
0
  6
CONTINUOUS
 62
     7
100
AcDbLine
 10
73.126538
 20
66.464827
 30
0.0
 11
73.117827
 21
66.464692
 31
0.0
  0
LINE
  5
2B1
330
274
100
AcDbEntity
  8
0
  6
CONTINUOUS
 62
     7
100
AcDbLine
 10
73.117827
 20
66.464692
 30
0.0
 11
73.109098
 21
66.464563
 31
0.0
  0
LINE
  5
2B2
330
274
100
AcDbEntity
  8
0
  6
CONTINUOUS
 62
     7
100
AcDbLine
 10
73.109098
 20
66.464563
 30
0.0
 11
73.100353
 21
66.464442
 31
0.0
  0
LINE
  5
2B3
330
274
100
AcDbEntity
  8
0
  6
CONTINUOUS
 62
     7
100
AcDbLine
 10
73.100353
 20
66.464442
 30
0.0
 11
73.091592
 21
66.464328
 31
0.0
  0
LINE
  5
2B4
330
274
100
AcDbEntity
  8
0
  6
CONTINUOUS
 62
     7
100
AcDbLine
 10
73.091592
 20
66.464328
 30
0.0
 11
73.082817
 21
66.464221
 31
0.0
  0
LINE
  5
2B5
330
274
100
AcDbEntity
  8
0
  6
CONTINUOUS
 62
     7
100
AcDbLine
 10
73.082817
 20
66.464221
 30
0.0
 11
73.074028
 21
66.464122
 31
0.0
  0
LINE
  5
2B6
330
274
100
AcDbEntity
  8
0
  6
CONTINUOUS
 62
     7
100
AcDbLine
 10
73.074028
 20
66.464122
 30
0.0
 11
73.065227
 21
66.46403
 31
0.0
  0
LINE
  5
2B7
330
274
100
AcDbEntity
  8
0
  6
CONTINUOUS
 62
     7
100
AcDbLine
 10
73.065227
 20
66.46403
 30
0.0
 11
73.056414
 21
66.463945
 31
0.0
  0
LINE
  5
2B8
330
274
100
AcDbEntity
  8
0
  6
CONTINUOUS
 62
     7
100
AcDbLine
 10
73.056414
 20
66.463945
 30
0.0
 11
73.04759
 21
66.463867
 31
0.0
  0
LINE
  5
2B9
330
274
100
AcDbEntity
  8
0
  6
CONTINUOUS
 62
     7
100
AcDbLine
 10
73.04759
 20
66.463867
 30
0.0
 11
73.038757
 21
66.463797
 31
0.0
  0
LINE
  5
2BA
330
274
100
AcDbEntity
  8
0
  6
CONTINUOUS
 62
     7
100
AcDbLine
 10
73.038757
 20
66.463797
 30
0.0
 11
73.029915
 21
66.463735
 31
0.0
  0
LINE
  5
2BB
330
274
100
AcDbEntity
  8
0
  6
CONTINUOUS
 62
     7
100
AcDbLine
 10
73.029915
 20
66.463735
 30
0.0
 11
73.021066
 21
66.463679
 31
0.0
  0
LINE
  5
2BC
330
274
100
AcDbEntity
  8
0
  6
CONTINUOUS
 62
     7
100
AcDbLine
 10
73.021066
 20
66.463679
 30
0.0
 11
73.01221
 21
66.463631
 31
0.0
  0
LINE
  5
2BD
330
274
100
AcDbEntity
  8
0
  6
CONTINUOUS
 62
     7
100
AcDbLine
 10
73.01221
 20
66.463631
 30
0.0
 11
73.003349
 21
66.463591
 31
0.0
  0
LINE
  5
2BE
330
274
100
AcDbEntity
  8
0
  6
CONTINUOUS
 62
     7
100
AcDbLine
 10
73.003349
 20
66.463591
 30
0.0
 11
72.994483
 21
66.463558
 31
0.0
  0
LINE
  5
2BF
330
274
100
AcDbEntity
  8
0
  6
CONTINUOUS
 62
     7
100
AcDbLine
 10
72.994483
 20
66.463558
 30
0.0
 11
72.985614
 21
66.463533
 31
0.0
  0
LINE
  5
2C0
330
274
100
AcDbEntity
  8
0
  6
CONTINUOUS
 62
     7
100
AcDbLine
 10
72.985614
 20
66.463533
 30
0.0
 11
72.976742
 21
66.463515
 31
0.0
  0
LINE
  5
2C1
330
274
100
AcDbEntity
  8
0
  6
CONTINUOUS
 62
     7
100
AcDbLine
 10
72.976742
 20
66.463515
 30
0.0
 11
72.967869
 21
66.463505
 31
0.0
  0
LINE
  5
2C2
330
274
100
AcDbEntity
  8
0
  6
CONTINUOUS
 62
     7
100
AcDbLine
 10
72.967869
 20
66.463505
 30
0.0
 11
72.958995
 21
66.463502
 31
0.0
  0
LINE
  5
2C3
330
274
100
AcDbEntity
  8
0
  6
CONTINUOUS
 62
     7
100
AcDbLine
 10
72.958995
 20
66.463502
 30
0.0
 11
72.950122
 21
66.463507
 31
0.0
  0
LINE
  5
2C4
330
274
100
AcDbEntity
  8
0
  6
CONTINUOUS
 62
     7
100
AcDbLine
 10
72.950122
 20
66.463507
 30
0.0
 11
72.94125
 21
66.46352
 31
0.0
  0
LINE
  5
2C5
330
274
100
AcDbEntity
  8
0
  6
CONTINUOUS
 62
     7
100
AcDbLine
 10
72.94125
 20
66.46352
 30
0.0
 11
72.932381
 21
66.46354
 31
0.0
  0
LINE
  5
2C6
330
274
100
AcDbEntity
  8
0
  6
CONTINUOUS
 62
     7
100
AcDbLine
 10
72.932381
 20
66.46354
 30
0.0
 11
72.923515
 21
66.463568
 31
0.0
  0
LINE
  5
2C7
330
274
100
AcDbEntity
  8
0
  6
CONTINUOUS
 62
     7
100
AcDbLine
 10
72.923515
 20
66.463568
 30
0.0
 11
72.914654
 21
66.463603
 31
0.0
  0
LINE
  5
2C8
330
274
100
AcDbEntity
  8
0
  6
CONTINUOUS
 62
     7
100
AcDbLine
 10
72.914654
 20
66.463603
 30
0.0
 11
72.905799
 21
66.463647
 31
0.0
  0
LINE
  5
2C9
330
274
100
AcDbEntity
  8
0
  6
CONTINUOUS
 62
     7
100
AcDbLine
 10
72.905799
 20
66.463647
 30
0.0
 11
72.89695
 21
66.463698
 31
0.0
  0
LINE
  5
2CA
330
274
100
AcDbEntity
  8
0
  6
CONTINUOUS
 62
     7
100
AcDbLine
 10
72.89695
 20
66.463698
 30
0.0
 11
72.888109
 21
66.463757
 31
0.0
  0
LINE
  5
2CB
330
274
100
AcDbEntity
  8
0
  6
CONTINUOUS
 62
     7
100
AcDbLine
 10
72.888109
 20
66.463757
 30
0.0
 11
72.879276
 21
66.463824
 31
0.0
  0
LINE
  5
2CC
330
274
100
AcDbEntity
  8
0
  6
CONTINUOUS
 62
     7
100
AcDbLine
 10
72.879276
 20
66.463824
 30
0.0
 11
72.87032
 21
66.463899
 31
0.0
  0
LINE
  5
2CD
330
274
100
AcDbEntity
  8
0
  6
CONTINUOUS
 62
     7
100
AcDbLine
 10
72.87032
 20
66.463899
 30
0.0
 11
72.861375
 21
66.463983
 31
0.0
  0
LINE
  5
2CE
330
274
100
AcDbEntity
  8
0
  6
CONTINUOUS
 62
     7
100
AcDbLine
 10
72.861375
 20
66.463983
 30
0.0
 11
72.852442
 21
66.464075
 31
0.0
  0
LINE
  5
2CF
330
274
100
AcDbEntity
  8
0
  6
CONTINUOUS
 62
     7
100
AcDbLine
 10
72.852442
 20
66.464075
 30
0.0
 11
72.843522
 21
66.464174
 31
0.0
  0
LINE
  5
2D0
330
274
100
AcDbEntity
  8
0
  6
CONTINUOUS
 62
     7
100
AcDbLine
 10
72.843522
 20
66.464174
 30
0.0
 11
72.834614
 21
66.464281
 31
0.0
  0
LINE
  5
2D1
330
274
100
AcDbEntity
  8
0
  6
CONTINUOUS
 62
     7
100
AcDbLine
 10
72.834614
 20
66.464281
 30
0.0
 11
72.825722
 21
66.464396
 31
0.0
  0
LINE
  5
2D2
330
274
100
AcDbEntity
  8
0
  6
CONTINUOUS
 62
     7
100
AcDbLine
 10
72.825722
 20
66.464396
 30
0.0
 11
72.816844
 21
66.464519
 31
0.0
  0
LINE
  5
2D3
330
274
100
AcDbEntity
  8
0
  6
CONTINUOUS
 62
     7
100
AcDbLine
 10
72.816844
 20
66.464519
 30
0.0
 11
72.807983
 21
66.464649
 31
0.0
  0
LINE
  5
2D4
330
274
100
AcDbEntity
  8
0
  6
CONTINUOUS
 62
     7
100
AcDbLine
 10
72.807983
 20
66.464649
 30
0.0
 11
72.799139
 21
66.464786
 31
0.0
  0
LINE
  5
2D5
330
274
100
AcDbEntity
  8
0
  6
CONTINUOUS
 62
     7
100
AcDbLine
 10
72.799139
 20
66.464786
 30
0.0
 11
72.790313
 21
66.464931
 31
0.0
  0
LINE
  5
2D6
330
274
100
AcDbEntity
  8
0
  6
CONTINUOUS
 62
     7
100
AcDbLine
 10
72.790313
 20
66.464931
 30
0.0
 11
72.781505
 21
66.465083
 31
0.0
  0
LINE
  5
2D7
330
274
100
AcDbEntity
  8
0
  6
CONTINUOUS
 62
     7
100
AcDbLine
 10
72.781505
 20
66.465083
 30
0.0
 11
72.772718
 21
66.465242
 31
0.0
  0
LINE
  5
2D8
330
274
100
AcDbEntity
  8
0
  6
CONTINUOUS
 62
     7
100
AcDbLine
 10
72.772718
 20
66.465242
 30
0.0
 11
72.763951
 21
66.465408
 31
0.0
  0
LINE
  5
2D9
330
274
100
AcDbEntity
  8
0
  6
CONTINUOUS
 62
     7
100
AcDbLine
 10
72.763951
 20
66.465408
 30
0.0
 11
72.755205
 21
66.465581
 31
0.0
  0
LINE
  5
2DA
330
274
100
AcDbEntity
  8
0
  6
CONTINUOUS
 62
     7
100
AcDbLine
 10
72.755205
 20
66.465581
 30
0.0
 11
72.746483
 21
66.465761
 31
0.0
  0
LINE
  5
2DB
330
274
100
AcDbEntity
  8
0
  6
CONTINUOUS
 62
     7
100
AcDbLine
 10
72.746483
 20
66.465761
 30
0.0
 11
72.737783
 21
66.465948
 31
0.0
  0
LINE
  5
2DC
330
274
100
AcDbEntity
  8
0
  6
CONTINUOUS
 62
     7
100
AcDbLine
 10
72.737783
 20
66.465948
 30
0.0
 11
72.729108
 21
66.466142
 31
0.0
  0
LINE
  5
2DD
330
274
100
AcDbEntity
  8
0
  6
CONTINUOUS
 62
     7
100
AcDbLine
 10
72.729108
 20
66.466142
 30
0.0
 11
72.720458
 21
66.466342
 31
0.0
  0
LINE
  5
2DE
330
274
100
AcDbEntity
  8
0
  6
CONTINUOUS
 62
     7
100
AcDbLine
 10
72.720458
 20
66.466342
 30
0.0
 11
72.711834
 21
66.466549
 31
0.0
  0
LINE
  5
2DF
330
274
100
AcDbEntity
  8
0
  6
CONTINUOUS
 62
     7
100
AcDbLine
 10
72.711834
 20
66.466549
 30
0.0
 11
72.703237
 21
66.466763
 31
0.0
  0
LINE
  5
2E0
330
274
100
AcDbEntity
  8
0
  6
CONTINUOUS
 62
     7
100
AcDbLine
 10
72.703237
 20
66.466763
 30
0.0
 11
72.694668
 21
66.466983
 31
0.0
  0
LINE
  5
2E1
330
274
100
AcDbEntity
  8
0
  6
CONTINUOUS
 62
     7
100
AcDbLine
 10
72.694668
 20
66.466983
 30
0.0
 11
72.686128
 21
66.467209
 31
0.0
  0
LINE
  5
2E2
330
274
100
AcDbEntity
  8
0
  6
CONTINUOUS
 62
     7
100
AcDbLine
 10
72.686128
 20
66.467209
 30
0.0
 11
72.677617
 21
66.467442
 31
0.0
  0
LINE
  5
2E3
330
274
100
AcDbEntity
  8
0
  6
CONTINUOUS
 62
     7
100
AcDbLine
 10
72.677617
 20
66.467442
 30
0.0
 11
72.669137
 21
66.467681
 31
0.0
  0
LINE
  5
2E4
330
274
100
AcDbEntity
  8
0
  6
CONTINUOUS
 62
     7
100
AcDbLine
 10
72.669137
 20
66.467681
 30
0.0
 11
72.660688
 21
66.467926
 31
0.0
  0
LINE
  5
2E5
330
274
100
AcDbEntity
  8
0
  6
CONTINUOUS
 62
     7
100
AcDbLine
 10
72.660688
 20
66.467926
 30
0.0
 11
72.652272
 21
66.468177
 31
0.0
  0
LINE
  5
2E6
330
274
100
AcDbEntity
  8
0
  6
CONTINUOUS
 62
     7
100
AcDbLine
 10
72.652272
 20
66.468177
 30
0.0
 11
72.643889
 21
66.468434
 31
0.0
  0
LINE
  5
2E7
330
274
100
AcDbEntity
  8
0
  6
CONTINUOUS
 62
     7
100
AcDbLine
 10
72.643889
 20
66.468434
 30
0.0
 11
72.63554
 21
66.468696
 31
0.0
  0
LINE
  5
2E8
330
274
100
AcDbEntity
  8
0
  6
CONTINUOUS
 62
     7
100
AcDbLine
 10
72.63554
 20
66.468696
 30
0.0
 11
72.627226
 21
66.468965
 31
0.0
  0
LINE
  5
2E9
330
274
100
AcDbEntity
  8
0
  6
CONTINUOUS
 62
     7
100
AcDbLine
 10
72.627226
 20
66.468965
 30
0.0
 11
72.618949
 21
66.469239
 31
0.0
  0
LINE
  5
2EA
330
274
100
AcDbEntity
  8
0
  6
CONTINUOUS
 62
     7
100
AcDbLine
 10
72.618949
 20
66.469239
 30
0.0
 11
72.610708
 21
66.469519
 31
0.0
  0
LINE
  5
2EB
330
274
100
AcDbEntity
  8
0
  6
CONTINUOUS
 62
     7
100
AcDbLine
 10
72.610708
 20
66.469519
 30
0.0
 11
72.602504
 21
66.469805
 31
0.0
  0
LINE
  5
2EC
330
274
100
AcDbEntity
  8
0
  6
CONTINUOUS
 62
     7
100
AcDbLine
 10
72.602504
 20
66.469805
 30
0.0
 11
72.586305
 21
66.470388
 31
0.0
  0
LINE
  5
2ED
330
274
100
AcDbEntity
  8
0
  6
CONTINUOUS
 62
     7
100
AcDbLine
 10
72.586305
 20
66.470388
 30
0.0
 11
72.570268
 21
66.470992
 31
0.0
  0
LINE
  5
2EE
330
274
100
AcDbEntity
  8
0
  6
CONTINUOUS
 62
     7
100
AcDbLine
 10
72.570268
 20
66.470992
 30
0.0
 11
72.554405
 21
66.471614
 31
0.0
  0
LINE
  5
2EF
330
274
100
AcDbEntity
  8
0
  6
CONTINUOUS
 62
     7
100
AcDbLine
 10
72.554405
 20
66.471614
 30
0.0
 11
72.538724
 21
66.472254
 31
0.0
  0
LINE
  5
2F0
330
274
100
AcDbEntity
  8
0
  6
CONTINUOUS
 62
     7
100
AcDbLine
 10
72.538724
 20
66.472254
 30
0.0
 11
72.523236
 21
66.472909
 31
0.0
  0
LINE
  5
2F1
330
274
100
AcDbEntity
  8
0
  6
CONTINUOUS
 62
     7
100
AcDbLine
 10
72.523236
 20
66.472909
 30
0.0
 11
72.50795
 21
66.473577
 31
0.0
  0
LINE
  5
2F2
330
274
100
AcDbEntity
  8
0
  6
CONTINUOUS
 62
     7
100
AcDbLine
 10
72.50795
 20
66.473577
 30
0.0
 11
72.492877
 21
66.474259
 31
0.0
  0
LINE
  5
2F3
330
274
100
AcDbEntity
  8
0
  6
CONTINUOUS
 62
     7
100
AcDbLine
 10
72.492877
 20
66.474259
 30
0.0
 11
72.478027
 21
66.474951
 31
0.0
  0
LINE
  5
2F4
330
274
100
AcDbEntity
  8
0
  6
CONTINUOUS
 62
     7
100
AcDbLine
 10
72.478027
 20
66.474951
 30
0.0
 11
72.463409
 21
66.475652
 31
0.0
  0
LINE
  5
2F5
330
274
100
AcDbEntity
  8
0
  6
CONTINUOUS
 62
     7
100
AcDbLine
 10
72.463409
 20
66.475652
 30
0.0
 11
72.449034
 21
66.476362
 31
0.0
  0
LINE
  5
2F6
330
274
100
AcDbEntity
  8
0
  6
CONTINUOUS
 62
     7
100
AcDbLine
 10
72.449034
 20
66.476362
 30
0.0
 11
72.434911
 21
66.477077
 31
0.0
  0
LINE
  5
2F7
330
274
100
AcDbEntity
  8
0
  6
CONTINUOUS
 62
     7
100
AcDbLine
 10
72.434911
 20
66.477077
 30
0.0
 11
72.421051
 21
66.477798
 31
0.0
  0
LINE
  5
2F8
330
274
100
AcDbEntity
  8
0
  6
CONTINUOUS
 62
     7
100
AcDbLine
 10
72.421051
 20
66.477798
 30
0.0
 11
72.407462
 21
66.478522
 31
0.0
  0
LINE
  5
2F9
330
274
100
AcDbEntity
  8
0
  6
CONTINUOUS
 62
     7
100
AcDbLine
 10
72.407462
 20
66.478522
 30
0.0
 11
72.394157
 21
66.479247
 31
0.0
  0
LINE
  5
2FA
330
274
100
AcDbEntity
  8
0
  6
CONTINUOUS
 62
     7
100
AcDbLine
 10
72.394157
 20
66.479247
 30
0.0
 11
72.381143
 21
66.479973
 31
0.0
  0
LINE
  5
2FB
330
274
100
AcDbEntity
  8
0
  6
CONTINUOUS
 62
     7
100
AcDbLine
 10
72.381143
 20
66.479973
 30
0.0
 11
72.368432
 21
66.480697
 31
0.0
  0
LINE
  5
2FC
330
274
100
AcDbEntity
  8
0
  6
CONTINUOUS
 62
     7
100
AcDbLine
 10
72.368432
 20
66.480697
 30
0.0
 11
72.356353
 21
66.4814
 31
0.0
  0
LINE
  5
2FD
330
274
100
AcDbEntity
  8
0
  6
CONTINUOUS
 62
     7
100
AcDbLine
 10
72.356353
 20
66.4814
 30
0.0
 11
72.344568
 21
66.482099
 31
0.0
  0
LINE
  5
2FE
330
274
100
AcDbEntity
  8
0
  6
CONTINUOUS
 62
     7
100
AcDbLine
 10
72.344568
 20
66.482099
 30
0.0
 11
72.333072
 21
66.482795
 31
0.0
  0
LINE
  5
2FF
330
274
100
AcDbEntity
  8
0
  6
CONTINUOUS
 62
     7
100
AcDbLine
 10
72.333072
 20
66.482795
 30
0.0
 11
72.321862
 21
66.483486
 31
0.0
  0
LINE
  5
300
330
274
100
AcDbEntity
  8
0
  6
CONTINUOUS
 62
     7
100
AcDbLine
 10
72.321862
 20
66.483486
 30
0.0
 11
72.310937
 21
66.484171
 31
0.0
  0
LINE
  5
301
330
274
100
AcDbEntity
  8
0
  6
CONTINUOUS
 62
     7
100
AcDbLine
 10
72.310937
 20
66.484171
 30
0.0
 11
72.300291
 21
66.484851
 31
0.0
  0
LINE
  5
302
330
274
100
AcDbEntity
  8
0
  6
CONTINUOUS
 62
     7
100
AcDbLine
 10
72.300291
 20
66.484851
 30
0.0
 11
72.289923
 21
66.485525
 31
0.0
  0
LINE
  5
303
330
274
100
AcDbEntity
  8
0
  6
CONTINUOUS
 62
     7
100
AcDbLine
 10
72.289923
 20
66.485525
 30
0.0
 11
72.27983
 21
66.486191
 31
0.0
  0
LINE
  5
304
330
274
100
AcDbEntity
  8
0
  6
CONTINUOUS
 62
     7
100
AcDbLine
 10
72.27983
 20
66.486191
 30
0.0
 11
72.270007
 21
66.486849
 31
0.0
  0
LINE
  5
305
330
274
100
AcDbEntity
  8
0
  6
CONTINUOUS
 62
     7
100
AcDbLine
 10
72.270007
 20
66.486849
 30
0.0
 11
72.260453
 21
66.4875
 31
0.0
  0
LINE
  5
306
330
274
100
AcDbEntity
  8
0
  6
CONTINUOUS
 62
     7
100
AcDbLine
 10
72.260453
 20
66.4875
 30
0.0
 11
72.251163
 21
66.488141
 31
0.0
  0
LINE
  5
307
330
274
100
AcDbEntity
  8
0
  6
CONTINUOUS
 62
     7
100
AcDbLine
 10
72.251163
 20
66.488141
 30
0.0
 11
72.242135
 21
66.488773
 31
0.0
  0
LINE
  5
308
330
274
100
AcDbEntity
  8
0
  6
CONTINUOUS
 62
     7
100
AcDbLine
 10
72.242135
 20
66.488773
 30
0.0
 11
72.233367
 21
66.489394
 31
0.0
  0
LINE
  5
309
330
274
100
AcDbEntity
  8
0
  6
CONTINUOUS
 62
     7
100
AcDbLine
 10
72.233367
 20
66.489394
 30
0.0
 11
72.224853
 21
66.490005
 31
0.0
  0
LINE
  5
30A
330
274
100
AcDbEntity
  8
0
  6
CONTINUOUS
 62
     7
100
AcDbLine
 10
72.224853
 20
66.490005
 30
0.0
 11
72.208582
 21
66.491191
 31
0.0
  0
LINE
  5
30B
330
274
100
AcDbEntity
  8
0
  6
CONTINUOUS
 62
     7
100
AcDbLine
 10
72.208582
 20
66.491191
 30
0.0
 11
72.193948
 21
66.492278
 31
0.0
  0
LINE
  5
30C
330
274
100
AcDbEntity
  8
0
  6
CONTINUOUS
 62
     7
100
AcDbLine
 10
72.193948
 20
66.492278
 30
0.0
 11
72.180491
 21
66.493294
 31
0.0
  0
LINE
  5
30D
330
274
100
AcDbEntity
  8
0
  6
CONTINUOUS
 62
     7
100
AcDbLine
 10
72.180491
 20
66.493294
 30
0.0
 11
72.168479
 21
66.494212
 31
0.0
  0
LINE
  5
30E
330
274
100
AcDbEntity
  8
0
  6
CONTINUOUS
 62
     7
100
AcDbLine
 10
72.168479
 20
66.494212
 30
0.0
 11
72.15818
 21
66.49501
 31
0.0
  0
LINE
  5
30F
330
274
100
AcDbEntity
  8
0
  6
CONTINUOUS
 62
     7
100
AcDbLine
 10
72.15818
 20
66.49501
 30
0.0
 11
72.143802
 21
66.496141
 31
0.0
  0
LINE
  5
310
330
274
100
AcDbEntity
  8
0
  6
CONTINUOUS
 62
     7
100
AcDbLine
 10
72.143802
 20
66.496141
 30
0.0
 11
72.139509
 21
66.496489
 31
0.0
  0
LINE
  5
311
330
274
100
AcDbEntity
  8
0
  6
CONTINUOUS
 62
     7
100
AcDbLine
 10
72.139509
 20
66.496489
 30
0.0
 11
72.14499
 21
66.496056
 31
0.0
  0
ENDBLK
  5
276
330
274
100
AcDbEntity
  8
0
100
AcDbBlockEnd
  0
BLOCK
  5
313
330
312
100
AcDbEntity
  8
0
100
AcDbBlockBegin
  2
BLKF016
 70
     0
 71
     0
 10
0.0
 20
0.0
 30
0.0
  3
BLKF016
  1

  0
LINE
  5
316
330
312
100
AcDbEntity
  8
0
  6
CONTINUOUS
 62
     7
100
AcDbLine
 10
72.388029
 20
47.613857
 30
0.0
 11
72.365476
 21
47.612486
 31
0.0
  0
LINE
  5
317
330
312
100
AcDbEntity
  8
0
  6
CONTINUOUS
 62
     7
100
AcDbLine
 10
72.365476
 20
47.612486
 30
0.0
 11
72.343296
 21
47.611134
 31
0.0
  0
LINE
  5
318
330
312
100
AcDbEntity
  8
0
  6
CONTINUOUS
 62
     7
100
AcDbLine
 10
72.343296
 20
47.611134
 30
0.0
 11
72.321866
 21
47.609818
 31
0.0
  0
LINE
  5
319
330
312
100
AcDbEntity
  8
0
  6
CONTINUOUS
 62
     7
100
AcDbLine
 10
72.321866
 20
47.609818
 30
0.0
 11
72.301558
 21
47.608558
 31
0.0
  0
LINE
  5
31A
330
312
100
AcDbEntity
  8
0
  6
CONTINUOUS
 62
     7
100
AcDbLine
 10
72.301558
 20
47.608558
 30
0.0
 11
72.282749
 21
47.607371
 31
0.0
  0
LINE
  5
31B
330
312
100
AcDbEntity
  8
0
  6
CONTINUOUS
 62
     7
100
AcDbLine
 10
72.282749
 20
47.607371
 30
0.0
 11
72.265811
 21
47.606277
 31
0.0
  0
LINE
  5
31C
330
312
100
AcDbEntity
  8
0
  6
CONTINUOUS
 62
     7
100
AcDbLine
 10
72.265811
 20
47.606277
 30
0.0
 11
72.25112
 21
47.605292
 31
0.0
  0
LINE
  5
31D
330
312
100
AcDbEntity
  8
0
  6
CONTINUOUS
 62
     7
100
AcDbLine
 10
72.25112
 20
47.605292
 30
0.0
 11
72.244734
 21
47.604848
 31
0.0
  0
LINE
  5
31E
330
312
100
AcDbEntity
  8
0
  6
CONTINUOUS
 62
     7
100
AcDbLine
 10
72.244734
 20
47.604848
 30
0.0
 11
72.23905
 21
47.604437
 31
0.0
  0
LINE
  5
31F
330
312
100
AcDbEntity
  8
0
  6
CONTINUOUS
 62
     7
100
AcDbLine
 10
72.23905
 20
47.604437
 30
0.0
 11
72.234349
 21
47.604085
 31
0.0
  0
ENDBLK
  5
314
330
312
100
AcDbEntity
  8
0
100
AcDbBlockEnd
  0
BLOCK
  5
321
330
320
100
AcDbEntity
  8
0
100
AcDbBlockBegin
  2
BLKF017
 70
     0
 71
     0
 10
0.0
 20
0.0
 30
0.0
  3
BLKF017
  1

  0
LINE
  5
324
330
320
100
AcDbEntity
  8
0
  6
CONTINUOUS
 62
     7
100
AcDbLine
 10
72.147736
 20
47.597604
 30
0.0
 11
72.147684
 21
47.5976
 31
0.0
  0
LINE
  5
325
330
320
100
AcDbEntity
  8
0
  6
CONTINUOUS
 62
     7
100
AcDbLine
 10
72.147684
 20
47.5976
 30
0.0
 11
72.158355
 21
47.598439
 31
0.0
  0
LINE
  5
326
330
320
100
AcDbEntity
  8
0
  6
CONTINUOUS
 62
     7
100
AcDbLine
 10
72.158355
 20
47.598439
 30
0.0
 11
72.176883
 21
47.599869
 31
0.0
  0
LINE
  5
327
330
320
100
AcDbEntity
  8
0
  6
CONTINUOUS
 62
     7
100
AcDbLine
 10
72.176883
 20
47.599869
 30
0.0
 11
72.188644
 21
47.60076
 31
0.0
  0
LINE
  5
328
330
320
100
AcDbEntity
  8
0
  6
CONTINUOUS
 62
     7
100
AcDbLine
 10
72.188644
 20
47.60076
 30
0.0
 11
72.20183
 21
47.601744
 31
0.0
  0
LINE
  5
329
330
320
100
AcDbEntity
  8
0
  6
CONTINUOUS
 62
     7
100
AcDbLine
 10
72.20183
 20
47.601744
 30
0.0
 11
72.216262
 21
47.602804
 31
0.0
  0
LINE
  5
32A
330
320
100
AcDbEntity
  8
0
  6
CONTINUOUS
 62
     7
100
AcDbLine
 10
72.216262
 20
47.602804
 30
0.0
 11
72.23176
 21
47.603921
 31
0.0
  0
LINE
  5
32B
330
320
100
AcDbEntity
  8
0
  6
CONTINUOUS
 62
     7
100
AcDbLine
 10
72.23176
 20
47.603921
 30
0.0
 11
72.248424
 21
47.605097
 31
0.0
  0
LINE
  5
32C
330
320
100
AcDbEntity
  8
0
  6
CONTINUOUS
 62
     7
100
AcDbLine
 10
72.248424
 20
47.605097
 30
0.0
 11
72.266005
 21
47.606308
 31
0.0
  0
LINE
  5
32D
330
320
100
AcDbEntity
  8
0
  6
CONTINUOUS
 62
     7
100
AcDbLine
 10
72.266005
 20
47.606308
 30
0.0
 11
72.284508
 21
47.60755
 31
0.0
  0
LINE
  5
32E
330
320
100
AcDbEntity
  8
0
  6
CONTINUOUS
 62
     7
100
AcDbLine
 10
72.284508
 20
47.60755
 30
0.0
 11
72.303936
 21
47.608816
 31
0.0
  0
LINE
  5
32F
330
320
100
AcDbEntity
  8
0
  6
CONTINUOUS
 62
     7
100
AcDbLine
 10
72.303936
 20
47.608816
 30
0.0
 11
72.324294
 21
47.610101
 31
0.0
  0
LINE
  5
330
330
320
100
AcDbEntity
  8
0
  6
CONTINUOUS
 62
     7
100
AcDbLine
 10
72.324294
 20
47.610101
 30
0.0
 11
72.345587
 21
47.611401
 31
0.0
  0
LINE
  5
331
330
320
100
AcDbEntity
  8
0
  6
CONTINUOUS
 62
     7
100
AcDbLine
 10
72.345587
 20
47.611401
 30
0.0
 11
72.356585
 21
47.612055
 31
0.0
  0
LINE
  5
332
330
320
100
AcDbEntity
  8
0
  6
CONTINUOUS
 62
     7
100
AcDbLine
 10
72.356585
 20
47.612055
 30
0.0
 11
72.367819
 21
47.61271
 31
0.0
  0
LINE
  5
333
330
320
100
AcDbEntity
  8
0
  6
CONTINUOUS
 62
     7
100
AcDbLine
 10
72.367819
 20
47.61271
 30
0.0
 11
72.379288
 21
47.613366
 31
0.0
  0
LINE
  5
334
330
320
100
AcDbEntity
  8
0
  6
CONTINUOUS
 62
     7
100
AcDbLine
 10
72.379288
 20
47.613366
 30
0.0
 11
72.390993
 21
47.614022
 31
0.0
  0
LINE
  5
335
330
320
100
AcDbEntity
  8
0
  6
CONTINUOUS
 62
     7
100
AcDbLine
 10
72.390993
 20
47.614022
 30
0.0
 11
72.403378
 21
47.614702
 31
0.0
  0
LINE
  5
336
330
320
100
AcDbEntity
  8
0
  6
CONTINUOUS
 62
     7
100
AcDbLine
 10
72.403378
 20
47.614702
 30
0.0
 11
72.416011
 21
47.615381
 31
0.0
  0
LINE
  5
337
330
320
100
AcDbEntity
  8
0
  6
CONTINUOUS
 62
     7
100
AcDbLine
 10
72.416011
 20
47.615381
 30
0.0
 11
72.428882
 21
47.616057
 31
0.0
  0
LINE
  5
338
330
320
100
AcDbEntity
  8
0
  6
CONTINUOUS
 62
     7
100
AcDbLine
 10
72.428882
 20
47.616057
 30
0.0
 11
72.441986
 21
47.616729
 31
0.0
  0
LINE
  5
339
330
320
100
AcDbEntity
  8
0
  6
CONTINUOUS
 62
     7
100
AcDbLine
 10
72.441986
 20
47.616729
 30
0.0
 11
72.455313
 21
47.617395
 31
0.0
  0
LINE
  5
33A
330
320
100
AcDbEntity
  8
0
  6
CONTINUOUS
 62
     7
100
AcDbLine
 10
72.455313
 20
47.617395
 30
0.0
 11
72.468857
 21
47.618056
 31
0.0
  0
LINE
  5
33B
330
320
100
AcDbEntity
  8
0
  6
CONTINUOUS
 62
     7
100
AcDbLine
 10
72.468857
 20
47.618056
 30
0.0
 11
72.482609
 21
47.618709
 31
0.0
  0
LINE
  5
33C
330
320
100
AcDbEntity
  8
0
  6
CONTINUOUS
 62
     7
100
AcDbLine
 10
72.482609
 20
47.618709
 30
0.0
 11
72.496563
 21
47.619353
 31
0.0
  0
LINE
  5
33D
330
320
100
AcDbEntity
  8
0
  6
CONTINUOUS
 62
     7
100
AcDbLine
 10
72.496563
 20
47.619353
 30
0.0
 11
72.51071
 21
47.619987
 31
0.0
  0
LINE
  5
33E
330
320
100
AcDbEntity
  8
0
  6
CONTINUOUS
 62
     7
100
AcDbLine
 10
72.51071
 20
47.619987
 30
0.0
 11
72.525044
 21
47.62061
 31
0.0
  0
LINE
  5
33F
330
320
100
AcDbEntity
  8
0
  6
CONTINUOUS
 62
     7
100
AcDbLine
 10
72.525044
 20
47.62061
 30
0.0
 11
72.539555
 21
47.621221
 31
0.0
  0
LINE
  5
340
330
320
100
AcDbEntity
  8
0
  6
CONTINUOUS
 62
     7
100
AcDbLine
 10
72.539555
 20
47.621221
 30
0.0
 11
72.554237
 21
47.621818
 31
0.0
  0
LINE
  5
341
330
320
100
AcDbEntity
  8
0
  6
CONTINUOUS
 62
     7
100
AcDbLine
 10
72.554237
 20
47.621818
 30
0.0
 11
72.569082
 21
47.622401
 31
0.0
  0
LINE
  5
342
330
320
100
AcDbEntity
  8
0
  6
CONTINUOUS
 62
     7
100
AcDbLine
 10
72.569082
 20
47.622401
 30
0.0
 11
72.584082
 21
47.622968
 31
0.0
  0
LINE
  5
343
330
320
100
AcDbEntity
  8
0
  6
CONTINUOUS
 62
     7
100
AcDbLine
 10
72.584082
 20
47.622968
 30
0.0
 11
72.59923
 21
47.623517
 31
0.0
  0
LINE
  5
344
330
320
100
AcDbEntity
  8
0
  6
CONTINUOUS
 62
     7
100
AcDbLine
 10
72.59923
 20
47.623517
 30
0.0
 11
72.614518
 21
47.624049
 31
0.0
  0
LINE
  5
345
330
320
100
AcDbEntity
  8
0
  6
CONTINUOUS
 62
     7
100
AcDbLine
 10
72.614518
 20
47.624049
 30
0.0
 11
72.630545
 21
47.624581
 31
0.0
  0
LINE
  5
346
330
320
100
AcDbEntity
  8
0
  6
CONTINUOUS
 62
     7
100
AcDbLine
 10
72.630545
 20
47.624581
 30
0.0
 11
72.646709
 21
47.625091
 31
0.0
  0
LINE
  5
347
330
320
100
AcDbEntity
  8
0
  6
CONTINUOUS
 62
     7
100
AcDbLine
 10
72.646709
 20
47.625091
 30
0.0
 11
72.663001
 21
47.625579
 31
0.0
  0
LINE
  5
348
330
320
100
AcDbEntity
  8
0
  6
CONTINUOUS
 62
     7
100
AcDbLine
 10
72.663001
 20
47.625579
 30
0.0
 11
72.679416
 21
47.626045
 31
0.0
  0
LINE
  5
349
330
320
100
AcDbEntity
  8
0
  6
CONTINUOUS
 62
     7
100
AcDbLine
 10
72.679416
 20
47.626045
 30
0.0
 11
72.695947
 21
47.626487
 31
0.0
  0
LINE
  5
34A
330
320
100
AcDbEntity
  8
0
  6
CONTINUOUS
 62
     7
100
AcDbLine
 10
72.695947
 20
47.626487
 30
0.0
 11
72.712586
 21
47.626905
 31
0.0
  0
LINE
  5
34B
330
320
100
AcDbEntity
  8
0
  6
CONTINUOUS
 62
     7
100
AcDbLine
 10
72.712586
 20
47.626905
 30
0.0
 11
72.729328
 21
47.627299
 31
0.0
  0
LINE
  5
34C
330
320
100
AcDbEntity
  8
0
  6
CONTINUOUS
 62
     7
100
AcDbLine
 10
72.729328
 20
47.627299
 30
0.0
 11
72.746164
 21
47.627668
 31
0.0
  0
LINE
  5
34D
330
320
100
AcDbEntity
  8
0
  6
CONTINUOUS
 62
     7
100
AcDbLine
 10
72.746164
 20
47.627668
 30
0.0
 11
72.763088
 21
47.628011
 31
0.0
  0
LINE
  5
34E
330
320
100
AcDbEntity
  8
0
  6
CONTINUOUS
 62
     7
100
AcDbLine
 10
72.763088
 20
47.628011
 30
0.0
 11
72.780094
 21
47.628328
 31
0.0
  0
LINE
  5
34F
330
320
100
AcDbEntity
  8
0
  6
CONTINUOUS
 62
     7
100
AcDbLine
 10
72.780094
 20
47.628328
 30
0.0
 11
72.797175
 21
47.628618
 31
0.0
  0
LINE
  5
350
330
320
100
AcDbEntity
  8
0
  6
CONTINUOUS
 62
     7
100
AcDbLine
 10
72.797175
 20
47.628618
 30
0.0
 11
72.814323
 21
47.628881
 31
0.0
  0
LINE
  5
351
330
320
100
AcDbEntity
  8
0
  6
CONTINUOUS
 62
     7
100
AcDbLine
 10
72.814323
 20
47.628881
 30
0.0
 11
72.831532
 21
47.629116
 31
0.0
  0
LINE
  5
352
330
320
100
AcDbEntity
  8
0
  6
CONTINUOUS
 62
     7
100
AcDbLine
 10
72.831532
 20
47.629116
 30
0.0
 11
72.848795
 21
47.629322
 31
0.0
  0
LINE
  5
353
330
320
100
AcDbEntity
  8
0
  6
CONTINUOUS
 62
     7
100
AcDbLine
 10
72.848795
 20
47.629322
 30
0.0
 11
72.866106
 21
47.629499
 31
0.0
  0
LINE
  5
354
330
320
100
AcDbEntity
  8
0
  6
CONTINUOUS
 62
     7
100
AcDbLine
 10
72.866106
 20
47.629499
 30
0.0
 11
72.883456
 21
47.629647
 31
0.0
  0
LINE
  5
355
330
320
100
AcDbEntity
  8
0
  6
CONTINUOUS
 62
     7
100
AcDbLine
 10
72.883456
 20
47.629647
 30
0.0
 11
72.901289
 21
47.629767
 31
0.0
  0
LINE
  5
356
330
320
100
AcDbEntity
  8
0
  6
CONTINUOUS
 62
     7
100
AcDbLine
 10
72.901289
 20
47.629767
 30
0.0
 11
72.919149
 21
47.629856
 31
0.0
  0
LINE
  5
357
330
320
100
AcDbEntity
  8
0
  6
CONTINUOUS
 62
     7
100
AcDbLine
 10
72.919149
 20
47.629856
 30
0.0
 11
72.93703
 21
47.629913
 31
0.0
  0
LINE
  5
358
330
320
100
AcDbEntity
  8
0
  6
CONTINUOUS
 62
     7
100
AcDbLine
 10
72.93703
 20
47.629913
 30
0.0
 11
72.954922
 21
47.629939
 31
0.0
  0
LINE
  5
359
330
320
100
AcDbEntity
  8
0
  6
CONTINUOUS
 62
     7
100
AcDbLine
 10
72.954922
 20
47.629939
 30
0.0
 11
72.972818
 21
47.629933
 31
0.0
  0
LINE
  5
35A
330
320
100
AcDbEntity
  8
0
  6
CONTINUOUS
 62
     7
100
AcDbLine
 10
72.972818
 20
47.629933
 30
0.0
 11
72.990712
 21
47.629897
 31
0.0
  0
LINE
  5
35B
330
320
100
AcDbEntity
  8
0
  6
CONTINUOUS
 62
     7
100
AcDbLine
 10
72.990712
 20
47.629897
 30
0.0
 11
73.008594
 21
47.62983
 31
0.0
  0
LINE
  5
35C
330
320
100
AcDbEntity
  8
0
  6
CONTINUOUS
 62
     7
100
AcDbLine
 10
73.008594
 20
47.62983
 30
0.0
 11
73.026457
 21
47.629732
 31
0.0
  0
LINE
  5
35D
330
320
100
AcDbEntity
  8
0
  6
CONTINUOUS
 62
     7
100
AcDbLine
 10
73.026457
 20
47.629732
 30
0.0
 11
73.044294
 21
47.629603
 31
0.0
  0
LINE
  5
35E
330
320
100
AcDbEntity
  8
0
  6
CONTINUOUS
 62
     7
100
AcDbLine
 10
73.044294
 20
47.629603
 30
0.0
 11
73.062097
 21
47.629445
 31
0.0
  0
LINE
  5
35F
330
320
100
AcDbEntity
  8
0
  6
CONTINUOUS
 62
     7
100
AcDbLine
 10
73.062097
 20
47.629445
 30
0.0
 11
73.079858
 21
47.629256
 31
0.0
  0
LINE
  5
360
330
320
100
AcDbEntity
  8
0
  6
CONTINUOUS
 62
     7
100
AcDbLine
 10
73.079858
 20
47.629256
 30
0.0
 11
73.097569
 21
47.629037
 31
0.0
  0
LINE
  5
361
330
320
100
AcDbEntity
  8
0
  6
CONTINUOUS
 62
     7
100
AcDbLine
 10
73.097569
 20
47.629037
 30
0.0
 11
73.115223
 21
47.628789
 31
0.0
  0
LINE
  5
362
330
320
100
AcDbEntity
  8
0
  6
CONTINUOUS
 62
     7
100
AcDbLine
 10
73.115223
 20
47.628789
 30
0.0
 11
73.132811
 21
47.628511
 31
0.0
  0
LINE
  5
363
330
320
100
AcDbEntity
  8
0
  6
CONTINUOUS
 62
     7
100
AcDbLine
 10
73.132811
 20
47.628511
 30
0.0
 11
73.150327
 21
47.628203
 31
0.0
  0
LINE
  5
364
330
320
100
AcDbEntity
  8
0
  6
CONTINUOUS
 62
     7
100
AcDbLine
 10
73.150327
 20
47.628203
 30
0.0
 11
73.167762
 21
47.627866
 31
0.0
  0
LINE
  5
365
330
320
100
AcDbEntity
  8
0
  6
CONTINUOUS
 62
     7
100
AcDbLine
 10
73.167762
 20
47.627866
 30
0.0
 11
73.185216
 21
47.627498
 31
0.0
  0
LINE
  5
366
330
320
100
AcDbEntity
  8
0
  6
CONTINUOUS
 62
     7
100
AcDbLine
 10
73.185216
 20
47.627498
 30
0.0
 11
73.202572
 21
47.627102
 31
0.0
  0
LINE
  5
367
330
320
100
AcDbEntity
  8
0
  6
CONTINUOUS
 62
     7
100
AcDbLine
 10
73.202572
 20
47.627102
 30
0.0
 11
73.219821
 21
47.626678
 31
0.0
  0
LINE
  5
368
330
320
100
AcDbEntity
  8
0
  6
CONTINUOUS
 62
     7
100
AcDbLine
 10
73.219821
 20
47.626678
 30
0.0
 11
73.236955
 21
47.626228
 31
0.0
  0
LINE
  5
369
330
320
100
AcDbEntity
  8
0
  6
CONTINUOUS
 62
     7
100
AcDbLine
 10
73.236955
 20
47.626228
 30
0.0
 11
73.253964
 21
47.625753
 31
0.0
  0
LINE
  5
36A
330
320
100
AcDbEntity
  8
0
  6
CONTINUOUS
 62
     7
100
AcDbLine
 10
73.253964
 20
47.625753
 30
0.0
 11
73.27084
 21
47.625255
 31
0.0
  0
LINE
  5
36B
330
320
100
AcDbEntity
  8
0
  6
CONTINUOUS
 62
     7
100
AcDbLine
 10
73.27084
 20
47.625255
 30
0.0
 11
73.287574
 21
47.624733
 31
0.0
  0
LINE
  5
36C
330
320
100
AcDbEntity
  8
0
  6
CONTINUOUS
 62
     7
100
AcDbLine
 10
73.287574
 20
47.624733
 30
0.0
 11
73.304158
 21
47.62419
 31
0.0
  0
LINE
  5
36D
330
320
100
AcDbEntity
  8
0
  6
CONTINUOUS
 62
     7
100
AcDbLine
 10
73.304158
 20
47.62419
 30
0.0
 11
73.320583
 21
47.623626
 31
0.0
  0
LINE
  5
36E
330
320
100
AcDbEntity
  8
0
  6
CONTINUOUS
 62
     7
100
AcDbLine
 10
73.320583
 20
47.623626
 30
0.0
 11
73.336839
 21
47.623043
 31
0.0
  0
LINE
  5
36F
330
320
100
AcDbEntity
  8
0
  6
CONTINUOUS
 62
     7
100
AcDbLine
 10
73.336839
 20
47.623043
 30
0.0
 11
73.352919
 21
47.622441
 31
0.0
  0
LINE
  5
370
330
320
100
AcDbEntity
  8
0
  6
CONTINUOUS
 62
     7
100
AcDbLine
 10
73.352919
 20
47.622441
 30
0.0
 11
73.368813
 21
47.621823
 31
0.0
  0
LINE
  5
371
330
320
100
AcDbEntity
  8
0
  6
CONTINUOUS
 62
     7
100
AcDbLine
 10
73.368813
 20
47.621823
 30
0.0
 11
73.384513
 21
47.621188
 31
0.0
  0
LINE
  5
372
330
320
100
AcDbEntity
  8
0
  6
CONTINUOUS
 62
     7
100
AcDbLine
 10
73.384513
 20
47.621188
 30
0.0
 11
73.400011
 21
47.620538
 31
0.0
  0
LINE
  5
373
330
320
100
AcDbEntity
  8
0
  6
CONTINUOUS
 62
     7
100
AcDbLine
 10
73.400011
 20
47.620538
 30
0.0
 11
73.415296
 21
47.619874
 31
0.0
  0
LINE
  5
374
330
320
100
AcDbEntity
  8
0
  6
CONTINUOUS
 62
     7
100
AcDbLine
 10
73.415296
 20
47.619874
 30
0.0
 11
73.430361
 21
47.619198
 31
0.0
  0
LINE
  5
375
330
320
100
AcDbEntity
  8
0
  6
CONTINUOUS
 62
     7
100
AcDbLine
 10
73.430361
 20
47.619198
 30
0.0
 11
73.44498
 21
47.61852
 31
0.0
  0
LINE
  5
376
330
320
100
AcDbEntity
  8
0
  6
CONTINUOUS
 62
     7
100
AcDbLine
 10
73.44498
 20
47.61852
 30
0.0
 11
73.459373
 21
47.617832
 31
0.0
  0
LINE
  5
377
330
320
100
AcDbEntity
  8
0
  6
CONTINUOUS
 62
     7
100
AcDbLine
 10
73.459373
 20
47.617832
 30
0.0
 11
73.473537
 21
47.617135
 31
0.0
  0
LINE
  5
378
330
320
100
AcDbEntity
  8
0
  6
CONTINUOUS
 62
     7
100
AcDbLine
 10
73.473537
 20
47.617135
 30
0.0
 11
73.487468
 21
47.61643
 31
0.0
  0
LINE
  5
379
330
320
100
AcDbEntity
  8
0
  6
CONTINUOUS
 62
     7
100
AcDbLine
 10
73.487468
 20
47.61643
 30
0.0
 11
73.501162
 21
47.615718
 31
0.0
  0
LINE
  5
37A
330
320
100
AcDbEntity
  8
0
  6
CONTINUOUS
 62
     7
100
AcDbLine
 10
73.501162
 20
47.615718
 30
0.0
 11
73.514617
 21
47.615001
 31
0.0
  0
LINE
  5
37B
330
320
100
AcDbEntity
  8
0
  6
CONTINUOUS
 62
     7
100
AcDbLine
 10
73.514617
 20
47.615001
 30
0.0
 11
73.527828
 21
47.614279
 31
0.0
  0
LINE
  5
37C
330
320
100
AcDbEntity
  8
0
  6
CONTINUOUS
 62
     7
100
AcDbLine
 10
73.527828
 20
47.614279
 30
0.0
 11
73.540792
 21
47.613554
 31
0.0
  0
LINE
  5
37D
330
320
100
AcDbEntity
  8
0
  6
CONTINUOUS
 62
     7
100
AcDbLine
 10
73.540792
 20
47.613554
 30
0.0
 11
73.553506
 21
47.612827
 31
0.0
  0
LINE
  5
37E
330
320
100
AcDbEntity
  8
0
  6
CONTINUOUS
 62
     7
100
AcDbLine
 10
73.553506
 20
47.612827
 30
0.0
 11
73.565965
 21
47.612099
 31
0.0
  0
LINE
  5
37F
330
320
100
AcDbEntity
  8
0
  6
CONTINUOUS
 62
     7
100
AcDbLine
 10
73.565965
 20
47.612099
 30
0.0
 11
73.578168
 21
47.611371
 31
0.0
  0
LINE
  5
380
330
320
100
AcDbEntity
  8
0
  6
CONTINUOUS
 62
     7
100
AcDbLine
 10
73.578168
 20
47.611371
 30
0.0
 11
73.590109
 21
47.610645
 31
0.0
  0
LINE
  5
381
330
320
100
AcDbEntity
  8
0
  6
CONTINUOUS
 62
     7
100
AcDbLine
 10
73.590109
 20
47.610645
 30
0.0
 11
73.601786
 21
47.609921
 31
0.0
  0
LINE
  5
382
330
320
100
AcDbEntity
  8
0
  6
CONTINUOUS
 62
     7
100
AcDbLine
 10
73.601786
 20
47.609921
 30
0.0
 11
73.613195
 21
47.6092
 31
0.0
  0
LINE
  5
383
330
320
100
AcDbEntity
  8
0
  6
CONTINUOUS
 62
     7
100
AcDbLine
 10
73.613195
 20
47.6092
 30
0.0
 11
73.624333
 21
47.608485
 31
0.0
  0
LINE
  5
384
330
320
100
AcDbEntity
  8
0
  6
CONTINUOUS
 62
     7
100
AcDbLine
 10
73.624333
 20
47.608485
 30
0.0
 11
73.635196
 21
47.607775
 31
0.0
  0
LINE
  5
385
330
320
100
AcDbEntity
  8
0
  6
CONTINUOUS
 62
     7
100
AcDbLine
 10
73.635196
 20
47.607775
 30
0.0
 11
73.65537
 21
47.606426
 31
0.0
  0
LINE
  5
386
330
320
100
AcDbEntity
  8
0
  6
CONTINUOUS
 62
     7
100
AcDbLine
 10
73.65537
 20
47.606426
 30
0.0
 11
73.674371
 21
47.605121
 31
0.0
  0
LINE
  5
387
330
320
100
AcDbEntity
  8
0
  6
CONTINUOUS
 62
     7
100
AcDbLine
 10
73.674371
 20
47.605121
 30
0.0
 11
73.692069
 21
47.603874
 31
0.0
  0
LINE
  5
388
330
320
100
AcDbEntity
  8
0
  6
CONTINUOUS
 62
     7
100
AcDbLine
 10
73.692069
 20
47.603874
 30
0.0
 11
73.708328
 21
47.602703
 31
0.0
  0
LINE
  5
389
330
320
100
AcDbEntity
  8
0
  6
CONTINUOUS
 62
     7
100
AcDbLine
 10
73.708328
 20
47.602703
 30
0.0
 11
73.723017
 21
47.601625
 31
0.0
  0
LINE
  5
38A
330
320
100
AcDbEntity
  8
0
  6
CONTINUOUS
 62
     7
100
AcDbLine
 10
73.723017
 20
47.601625
 30
0.0
 11
73.736003
 21
47.600655
 31
0.0
  0
LINE
  5
38B
330
320
100
AcDbEntity
  8
0
  6
CONTINUOUS
 62
     7
100
AcDbLine
 10
73.736003
 20
47.600655
 30
0.0
 11
73.756331
 21
47.599108
 31
0.0
  0
LINE
  5
38C
330
320
100
AcDbEntity
  8
0
  6
CONTINUOUS
 62
     7
100
AcDbLine
 10
73.756331
 20
47.599108
 30
0.0
 11
73.773265
 21
47.597793
 31
0.0
  0
LINE
  5
38D
330
320
100
AcDbEntity
  8
0
  6
CONTINUOUS
 62
     7
100
AcDbLine
 10
73.773265
 20
47.597793
 30
0.0
 11
73.77988
 21
47.597254
 31
0.0
  0
ENDBLK
  5
322
330
320
100
AcDbEntity
  8
0
100
AcDbBlockEnd
  0
BLOCK
  5
3A1
330
3A0
100
AcDbEntity
  8
0
100
AcDbBlockBegin
  2
BLKF018
 70
     0
 71
     0
 10
0.0
 20
0.0
 30
0.0
  3
BLKF018
  1

  0
LINE
  5
3A4
330
3A0
100
AcDbEntity
  8
CSLAYER2
  6
CONTINUOUS
 62
     3
100
AcDbLine
 10
59.290136
 20
20.264102
 30
0.0
 11
57.290136
 21
20.8
 31
0.0
  0
LINE
  5
3A5
330
3A0
100
AcDbEntity
  8
CSLAYER2
  6
CONTINUOUS
 62
     3
100
AcDbLine
 10
57.290136
 20
20.8
 30
0.0
 11
59.290136
 21
21.335898
 31
0.0
  0
LINE
  5
3A6
330
3A0
100
AcDbEntity
  8
CSLAYER2
  6
CONTINUOUS
 62
     3
100
AcDbLine
 10
57.290136
 20
20.8
 30
0.0
 11
59.290136
 21
20.8
 31
0.0
  0
LINE
  5
3A7
330
3A0
100
AcDbEntity
  8
CSLAYER2
  6
CONTINUOUS
 62
     3
100
AcDbLine
 10
158.061639
 20
21.335898
 30
0.0
 11
160.061639
 21
20.8
 31
0.0
  0
LINE
  5
3A8
330
3A0
100
AcDbEntity
  8
CSLAYER2
  6
CONTINUOUS
 62
     3
100
AcDbLine
 10
160.061639
 20
20.8
 30
0.0
 11
158.061639
 21
20.264102
 31
0.0
  0
LINE
  5
3A9
330
3A0
100
AcDbEntity
  8
CSLAYER2
  6
CONTINUOUS
 62
     3
100
AcDbLine
 10
160.061639
 20
20.8
 30
0.0
 11
158.061639
 21
20.8
 31
0.0
  0
LINE
  5
3AA
330
3A0
100
AcDbEntity
  8
CSLAYER2
  6
CONTINUOUS
 62
     3
100
AcDbLine
 10
57.290136
 20
53.614069
 30
0.0
 11
57.290136
 21
20.0
 31
0.0
  0
LINE
  5
3AB
330
3A0
100
AcDbEntity
  8
CSLAYER2
  6
CONTINUOUS
 62
     3
100
AcDbLine
 10
160.061639
 20
49.086719
 30
0.0
 11
160.061639
 21
20.0
 31
0.0
  0
LINE
  5
3AC
330
3A0
100
AcDbEntity
  8
CSLAYER2
  6
CONTINUOUS
 62
     3
100
AcDbLine
 10
57.290136
 20
20.8
 30
0.0
 11
160.061639
 21
20.8
 31
0.0
  0
TEXT
  5
3AD
330
3A0
100
AcDbEntity
  8
CSLAYER2
 62
     3
100
AcDbText
 10
102.870918
 20
21.667204
 30
0.0
 40
3.0
  1
(102.8)
 41
0.902632
  7
ED_VECTOR
 72
     5
 11
117.570918
 21
21.667204
 31
0.0
100
AcDbText
  0
ENDBLK
  5
3A2
330
3A0
100
AcDbEntity
  8
0
100
AcDbBlockEnd
  0
BLOCK
  5
3AF
330
3AE
100
AcDbEntity
  8
0
100
AcDbBlockBegin
  2
BLKF019
 70
     0
 71
     0
 10
0.0
 20
0.0
 30
0.0
  3
BLKF019
  1

  0
LINE
  5
3B2
330
3AE
100
AcDbEntity
  8
CSLAYER2
  6
CONTINUOUS
 62
     3
100
AcDbLine
 10
26.521327
 20
68.571719
 30
0.0
 11
25.985429
 21
66.571719
 31
0.0
  0
LINE
  5
3B3
330
3AE
100
AcDbEntity
  8
CSLAYER2
  6
CONTINUOUS
 62
     3
100
AcDbLine
 10
25.985429
 20
66.571719
 30
0.0
 11
25.449531
 21
68.571719
 31
0.0
  0
LINE
  5
3B4
330
3AE
100
AcDbEntity
  8
CSLAYER2
  6
CONTINUOUS
 62
     3
100
AcDbLine
 10
25.985429
 20
66.571719
 30
0.0
 11
25.985429
 21
68.571719
 31
0.0
  0
LINE
  5
3B5
330
3AE
100
AcDbEntity
  8
CSLAYER2
  6
CONTINUOUS
 62
     3
100
AcDbLine
 10
25.449531
 20
45.521719
 30
0.0
 11
25.985429
 21
47.521719
 31
0.0
  0
LINE
  5
3B6
330
3AE
100
AcDbEntity
  8
CSLAYER2
  6
CONTINUOUS
 62
     3
100
AcDbLine
 10
25.985429
 20
47.521719
 30
0.0
 11
26.521327
 21
45.521719
 31
0.0
  0
LINE
  5
3B7
330
3AE
100
AcDbEntity
  8
CSLAYER2
  6
CONTINUOUS
 62
     3
100
AcDbLine
 10
25.985429
 20
47.521719
 30
0.0
 11
25.985429
 21
45.521719
 31
0.0
  0
LINE
  5
3B8
330
3AE
100
AcDbEntity
  8
CSLAYER2
  6
CONTINUOUS
 62
     3
100
AcDbLine
 10
78.251639
 20
66.571719
 30
0.0
 11
25.185429
 21
66.571719
 31
0.0
  0
LINE
  5
3B9
330
3AE
100
AcDbEntity
  8
CSLAYER2
  6
CONTINUOUS
 62
     3
100
AcDbLine
 10
78.251639
 20
47.521719
 30
0.0
 11
25.185429
 21
47.521719
 31
0.0
  0
LINE
  5
3BA
330
3AE
100
AcDbEntity
  8
CSLAYER2
  6
CONTINUOUS
 62
     3
100
AcDbLine
 10
25.985429
 20
66.571719
 30
0.0
 11
25.985429
 21
69.571719
 31
0.0
  0
LINE
  5
3BB
330
3AE
100
AcDbEntity
  8
CSLAYER2
  6
CONTINUOUS
 62
     3
100
AcDbLine
 10
25.985429
 20
66.571719
 30
0.0
 11
25.985429
 21
47.521719
 31
0.0
  0
LINE
  5
3BC
330
3AE
100
AcDbEntity
  8
CSLAYER2
  6
CONTINUOUS
 62
     3
100
AcDbLine
 10
25.985429
 20
47.521719
 30
0.0
 11
25.985429
 21
44.521719
 31
0.0
  0
TEXT
  5
3BD
330
3AE
100
AcDbEntity
  8
CSLAYER2
 62
     3
100
AcDbText
 10
25.118225
 20
46.884426
 30
0.0
 40
3.0
  1
%%c
 50
90.0
 41
0.864706
  7
ED_VECTOR
 72
     5
 11
25.118225
 21
48.984426
 31
0.0
100
AcDbText
  0
TEXT
  5
3BE
330
3AE
100
AcDbEntity
  8
CSLAYER2
 62
     3
100
AcDbText
 10
25.118225
 20
50.201511
 30
0.0
 40
3.0
  1
19.05
 50
90.0
 41
0.844828
  7
ED_VECTOR
 72
     5
 11
25.118225
 21
60.701511
 31
0.0
100
AcDbText
  0
TEXT
  5
3BF
330
3AE
100
AcDbEntity
  8
CSLAYER2
 62
     3
100
AcDbText
 10
25.193333
 20
61.055679
 30
0.0
 40
2.4
  1
-
 50
90.0
 41
0.668182
  7
ED_VECTOR
 72
     5
 11
25.193333
 21
62.735679
 31
0.0
100
AcDbText
  0
TEXT
  5
3C0
330
3AE
100
AcDbEntity
  8
CSLAYER2
 62
     3
100
AcDbText
 10
22.4
 20
62.452343
 30
0.0
 40
2.4
  1
0
 50
90.0
 41
0.864706
  7
ED_VECTOR
 72
     5
 11
22.4
 21
64.132343
 31
0.0
100
AcDbText
  0
TEXT
  5
3C1
330
3AE
100
AcDbEntity
  8
CSLAYER2
 62
     3
100
AcDbText
 10
25.193333
 20
62.452343
 30
0.0
 40
2.4
  1
0.01
 50
90.0
 41
0.963934
  7
ED_VECTOR
 72
     5
 11
25.193333
 21
69.172343
 31
0.0
100
AcDbText
  0
ENDBLK
  5
3B0
330
3AE
100
AcDbEntity
  8
0
100
AcDbBlockEnd
  0
BLOCK
  5
3C3
330
3C2
100
AcDbEntity
  8
0
100
AcDbBlockBegin
  2
BLKF020
 70
     0
 71
     0
 10
0.0
 20
0.0
 30
0.0
  3
BLKF020
  1

  0
LINE
  5
3C6
330
3C2
100
AcDbEntity
  8
CSLAYER2
  6
CONTINUOUS
 62
     3
100
AcDbLine
 10
36.164901
 20
64.946719
 30
0.0
 11
35.629003
 21
62.946719
 31
0.0
  0
LINE
  5
3C7
330
3C2
100
AcDbEntity
  8
CSLAYER2
  6
CONTINUOUS
 62
     3
100
AcDbLine
 10
35.629003
 20
62.946719
 30
0.0
 11
35.093105
 21
64.946719
 31
0.0
  0
LINE
  5
3C8
330
3C2
100
AcDbEntity
  8
CSLAYER2
  6
CONTINUOUS
 62
     3
100
AcDbLine
 10
35.629003
 20
62.946719
 30
0.0
 11
35.629003
 21
64.946719
 31
0.0
  0
LINE
  5
3C9
330
3C2
100
AcDbEntity
  8
CSLAYER2
  6
CONTINUOUS
 62
     3
100
AcDbLine
 10
35.093105
 20
49.146719
 30
0.0
 11
35.629003
 21
51.146719
 31
0.0
  0
LINE
  5
3CA
330
3C2
100
AcDbEntity
  8
CSLAYER2
  6
CONTINUOUS
 62
     3
100
AcDbLine
 10
35.629003
 20
51.146719
 30
0.0
 11
36.164901
 21
49.146719
 31
0.0
  0
LINE
  5
3CB
330
3C2
100
AcDbEntity
  8
CSLAYER2
  6
CONTINUOUS
 62
     3
100
AcDbLine
 10
35.629003
 20
51.146719
 30
0.0
 11
35.629003
 21
49.146719
 31
0.0
  0
LINE
  5
3CC
330
3C2
100
AcDbEntity
  8
CSLAYER2
  6
CONTINUOUS
 62
     3
100
AcDbLine
 10
60.838982
 20
62.946719
 30
0.0
 11
34.829003
 21
62.946719
 31
0.0
  0
LINE
  5
3CD
330
3C2
100
AcDbEntity
  8
CSLAYER2
  6
CONTINUOUS
 62
     3
100
AcDbLine
 10
60.838982
 20
51.146719
 30
0.0
 11
34.829003
 21
51.146719
 31
0.0
  0
LINE
  5
3CE
330
3C2
100
AcDbEntity
  8
CSLAYER2
  6
CONTINUOUS
 62
     3
100
AcDbLine
 10
35.629003
 20
62.946719
 30
0.0
 11
35.629003
 21
65.946719
 31
0.0
  0
LINE
  5
3CF
330
3C2
100
AcDbEntity
  8
CSLAYER2
  6
CONTINUOUS
 62
     3
100
AcDbLine
 10
35.629003
 20
62.946719
 30
0.0
 11
35.629003
 21
51.146719
 31
0.0
  0
LINE
  5
3D0
330
3C2
100
AcDbEntity
  8
CSLAYER2
  6
CONTINUOUS
 62
     3
100
AcDbLine
 10
35.629003
 20
51.146719
 30
0.0
 11
35.629003
 21
48.146719
 31
0.0
  0
TEXT
  5
3D1
330
3C2
100
AcDbEntity
  8
CSLAYER2
 62
     3
100
AcDbText
 10
34.761799
 20
51.365261
 30
0.0
 40
3.0
  1
%%c
 50
90.0
 41
0.864706
  7
ED_VECTOR
 72
     5
 11
34.761799
 21
53.465261
 31
0.0
100
AcDbText
  0
TEXT
  5
3D2
330
3C2
100
AcDbEntity
  8
CSLAYER2
 62
     3
100
AcDbText
 10
34.761799
 20
54.682343
 30
0.0
 40
3.0
  1
11.8
 50
90.0
 41
0.877612
  7
ED_VECTOR
 72
     5
 11
34.761799
 21
63.082342
 31
0.0
100
AcDbText
  0
ENDBLK
  5
3C4
330
3C2
100
AcDbEntity
  8
0
100
AcDbBlockEnd
  0
BLOCK
  5
3D4
330
3D3
100
AcDbEntity
  8
0
100
AcDbBlockBegin
  2
BLKF021
 70
     0
 71
     0
 10
0.0
 20
0.0
 30
0.0
  3
BLKF021
  1

  0
LINE
  5
3D7
330
3D3
100
AcDbEntity
  8
CSLAYER2
  6
CONTINUOUS
 62
     3
100
AcDbLine
 10
59.290136
 20
36.749697
 30
0.0
 11
57.290136
 21
37.285595
 31
0.0
  0
LINE
  5
3D8
330
3D3
100
AcDbEntity
  8
CSLAYER2
  6
CONTINUOUS
 62
     3
100
AcDbLine
 10
57.290136
 20
37.285595
 30
0.0
 11
59.290136
 21
37.821493
 31
0.0
  0
LINE
  5
3D9
330
3D3
100
AcDbEntity
  8
CSLAYER2
  6
CONTINUOUS
 62
     3
100
AcDbLine
 10
57.290136
 20
37.285595
 30
0.0
 11
59.290136
 21
37.285595
 31
0.0
  0
LINE
  5
3DA
330
3D3
100
AcDbEntity
  8
CSLAYER2
  6
CONTINUOUS
 62
     3
100
AcDbLine
 10
66.790136
 20
37.821493
 30
0.0
 11
68.790136
 21
37.285595
 31
0.0
  0
LINE
  5
3DB
330
3D3
100
AcDbEntity
  8
CSLAYER2
  6
CONTINUOUS
 62
     3
100
AcDbLine
 10
68.790136
 20
37.285595
 30
0.0
 11
66.790136
 21
36.749697
 31
0.0
  0
LINE
  5
3DC
330
3D3
100
AcDbEntity
  8
CSLAYER2
  6
CONTINUOUS
 62
     3
100
AcDbLine
 10
68.790136
 20
37.285595
 30
0.0
 11
66.790136
 21
37.285595
 31
0.0
  0
LINE
  5
3DD
330
3D3
100
AcDbEntity
  8
CSLAYER2
  6
CONTINUOUS
 62
     3
100
AcDbLine
 10
57.290136
 20
53.614069
 30
0.0
 11
57.290136
 21
36.485595
 31
0.0
  0
LINE
  5
3DE
330
3D3
100
AcDbEntity
  8
CSLAYER2
  6
CONTINUOUS
 62
     3
100
AcDbLine
 10
68.790136
 20
51.936719
 30
0.0
 11
68.790136
 21
36.485595
 31
0.0
  0
LINE
  5
3DF
330
3D3
100
AcDbEntity
  8
CSLAYER2
  6
CONTINUOUS
 62
     3
100
AcDbLine
 10
57.290136
 20
37.285595
 30
0.0
 11
68.790136
 21
37.285595
 31
0.0
  0
TEXT
  5
3E0
330
3D3
100
AcDbEntity
  8
CSLAYER2
 62
     3
100
AcDbText
 10
59.01722
 20
38.152798
 30
0.0
 40
3.0
  1
11.5
 41
0.877612
  7
ED_VECTOR
 72
     5
 11
67.417219
 21
38.152798
 31
0.0
100
AcDbText
  0
ENDBLK
  5
3D5
330
3D3
100
AcDbEntity
  8
0
100
AcDbBlockEnd
  0
BLOCK
  5
3E2
330
3E1
100
AcDbEntity
  8
0
100
AcDbBlockBegin
  2
BLKF022
 70
     0
 71
     0
 10
0.0
 20
0.0
 30
0.0
  3
BLKF022
  1

  0
LINE
  5
3E5
330
3E1
100
AcDbEntity
  8
CSLAYER2
  6
CONTINUOUS
 62
     3
100
AcDbLine
 10
59.290136
 20
28.375649
 30
0.0
 11
57.290136
 21
28.911547
 31
0.0
  0
LINE
  5
3E6
330
3E1
100
AcDbEntity
  8
CSLAYER2
  6
CONTINUOUS
 62
     3
100
AcDbLine
 10
57.290136
 20
28.911547
 30
0.0
 11
59.290136
 21
29.447445
 31
0.0
  0
LINE
  5
3E7
330
3E1
100
AcDbEntity
  8
CSLAYER2
  6
CONTINUOUS
 62
     3
100
AcDbLine
 10
57.290136
 20
28.911547
 30
0.0
 11
59.290136
 21
28.911547
 31
0.0
  0
LINE
  5
3E8
330
3E1
100
AcDbEntity
  8
CSLAYER2
  6
CONTINUOUS
 62
     3
100
AcDbLine
 10
69.861639
 20
29.447445
 30
0.0
 11
71.861639
 21
28.911547
 31
0.0
  0
LINE
  5
3E9
330
3E1
100
AcDbEntity
  8
CSLAYER2
  6
CONTINUOUS
 62
     3
100
AcDbLine
 10
71.861639
 20
28.911547
 30
0.0
 11
69.861639
 21
28.375649
 31
0.0
  0
LINE
  5
3EA
330
3E1
100
AcDbEntity
  8
CSLAYER2
  6
CONTINUOUS
 62
     3
100
AcDbLine
 10
71.861639
 20
28.911547
 30
0.0
 11
69.861639
 21
28.911547
 31
0.0
  0
LINE
  5
3EB
330
3E1
100
AcDbEntity
  8
CSLAYER2
  6
CONTINUOUS
 62
     3
100
AcDbLine
 10
57.290136
 20
53.614069
 30
0.0
 11
57.290136
 21
28.111547
 31
0.0
  0
LINE
  5
3EC
330
3E1
100
AcDbEntity
  8
CSLAYER2
  6
CONTINUOUS
 62
     3
100
AcDbLine
 10
71.861639
 20
47.786719
 30
0.0
 11
71.861639
 21
28.111547
 31
0.0
  0
LINE
  5
3ED
330
3E1
100
AcDbEntity
  8
CSLAYER2
  6
CONTINUOUS
 62
     3
100
AcDbLine
 10
57.290136
 20
28.911547
 30
0.0
 11
71.861639
 21
28.911547
 31
0.0
  0
TEXT
  5
3EE
330
3E1
100
AcDbEntity
  8
CSLAYER2
 62
     3
100
AcDbText
 10
58.204807
 20
29.778751
 30
0.0
 40
3.0
  1
(14.6)
 41
0.938298
  7
ED_VECTOR
 72
     5
 11
70.804807
 21
29.778751
 31
0.0
100
AcDbText
  0
ENDBLK
  5
3E3
330
3E1
100
AcDbEntity
  8
0
100
AcDbBlockEnd
  0
BLOCK
  5
3F0
330
3EF
100
AcDbEntity
  8
0
100
AcDbBlockBegin
  2
BLKF023
 70
     0
 71
     0
 10
0.0
 20
0.0
 30
0.0
  3
BLKF023
  1

  0
LINE
  5
3F3
330
3EF
100
AcDbEntity
  8
CSLAYER2
  6
CONTINUOUS
 62
     3
100
AcDbLine
 10
149.961639
 20
29.447445
 30
0.0
 11
151.961639
 21
28.911547
 31
0.0
  0
LINE
  5
3F4
330
3EF
100
AcDbEntity
  8
CSLAYER2
  6
CONTINUOUS
 62
     3
100
AcDbLine
 10
151.961639
 20
28.911547
 30
0.0
 11
149.961639
 21
28.375649
 31
0.0
  0
LINE
  5
3F5
330
3EF
100
AcDbEntity
  8
CSLAYER2
  6
CONTINUOUS
 62
     3
100
AcDbLine
 10
151.961639
 20
28.911547
 30
0.0
 11
149.961639
 21
28.911547
 31
0.0
  0
LINE
  5
3F6
330
3EF
100
AcDbEntity
  8
CSLAYER2
  6
CONTINUOUS
 62
     3
100
AcDbLine
 10
162.061639
 20
28.375649
 30
0.0
 11
160.061639
 21
28.911547
 31
0.0
  0
LINE
  5
3F7
330
3EF
100
AcDbEntity
  8
CSLAYER2
  6
CONTINUOUS
 62
     3
100
AcDbLine
 10
160.061639
 20
28.911547
 30
0.0
 11
162.061639
 21
29.447445
 31
0.0
  0
LINE
  5
3F8
330
3EF
100
AcDbEntity
  8
CSLAYER2
  6
CONTINUOUS
 62
     3
100
AcDbLine
 10
160.061639
 20
28.911547
 30
0.0
 11
162.061639
 21
28.911547
 31
0.0
  0
LINE
  5
3F9
330
3EF
100
AcDbEntity
  8
CSLAYER2
  6
CONTINUOUS
 62
     3
100
AcDbLine
 10
151.961639
 20
47.686719
 30
0.0
 11
151.961639
 21
28.111547
 31
0.0
  0
LINE
  5
3FA
330
3EF
100
AcDbEntity
  8
CSLAYER2
  6
CONTINUOUS
 62
     3
100
AcDbLine
 10
160.061639
 20
49.086719
 30
0.0
 11
160.061639
 21
28.111547
 31
0.0
  0
LINE
  5
3FB
330
3EF
100
AcDbEntity
  8
CSLAYER2
  6
CONTINUOUS
 62
     3
100
AcDbLine
 10
151.961639
 20
28.911547
 30
0.0
 11
148.961639
 21
28.911547
 31
0.0
  0
LINE
  5
3FC
330
3EF
100
AcDbEntity
  8
CSLAYER2
  6
CONTINUOUS
 62
     3
100
AcDbLine
 10
151.961639
 20
28.911547
 30
0.0
 11
160.061639
 21
28.911547
 31
0.0
  0
LINE
  5
3FD
330
3EF
100
AcDbEntity
  8
CSLAYER2
  6
CONTINUOUS
 62
     3
100
AcDbLine
 10
160.061639
 20
28.911547
 30
0.0
 11
163.061639
 21
28.911547
 31
0.0
  0
TEXT
  5
3FE
330
3EF
100
AcDbEntity
  8
CSLAYER2
 62
     3
100
AcDbText
 10
152.861633
 20
29.778751
 30
0.0
 40
3.0
  1
8.1
 41
1.07561
  7
ED_VECTOR
 72
     5
 11
159.161633
 21
29.778751
 31
0.0
100
AcDbText
  0
ENDBLK
  5
3F1
330
3EF
100
AcDbEntity
  8
0
100
AcDbBlockEnd
  0
BLOCK
  5
400
330
3FF
100
AcDbEntity
  8
0
100
AcDbBlockBegin
  2
BLKF024
 70
     0
 71
     0
 10
0.0
 20
0.0
 30
0.0
  3
BLKF024
  1

  0
LINE
  5
403
330
3FF
100
AcDbEntity
  8
CSLAYER2
  6
CONTINUOUS
 62
     3
100
AcDbLine
 10
149.961639
 20
29.447445
 30
0.0
 11
151.961639
 21
28.911547
 31
0.0
  0
LINE
  5
404
330
3FF
100
AcDbEntity
  8
CSLAYER2
  6
CONTINUOUS
 62
     3
100
AcDbLine
 10
151.961639
 20
28.911547
 30
0.0
 11
149.961639
 21
28.375649
 31
0.0
  0
LINE
  5
405
330
3FF
100
AcDbEntity
  8
CSLAYER2
  6
CONTINUOUS
 62
     3
100
AcDbLine
 10
151.961639
 20
28.911547
 30
0.0
 11
149.961639
 21
28.911547
 31
0.0
  0
LINE
  5
406
330
3FF
100
AcDbEntity
  8
CSLAYER2
  6
CONTINUOUS
 62
     3
100
AcDbLine
 10
73.861639
 20
28.375649
 30
0.0
 11
71.861639
 21
28.911547
 31
0.0
  0
LINE
  5
407
330
3FF
100
AcDbEntity
  8
CSLAYER2
  6
CONTINUOUS
 62
     3
100
AcDbLine
 10
71.861639
 20
28.911547
 30
0.0
 11
73.861639
 21
29.447445
 31
0.0
  0
LINE
  5
408
330
3FF
100
AcDbEntity
  8
CSLAYER2
  6
CONTINUOUS
 62
     3
100
AcDbLine
 10
71.861639
 20
28.911547
 30
0.0
 11
73.861639
 21
28.911547
 31
0.0
  0
LINE
  5
409
330
3FF
100
AcDbEntity
  8
CSLAYER2
  6
CONTINUOUS
 62
     3
100
AcDbLine
 10
151.961639
 20
47.686719
 30
0.0
 11
151.961639
 21
28.111547
 31
0.0
  0
LINE
  5
40A
330
3FF
100
AcDbEntity
  8
CSLAYER2
  6
CONTINUOUS
 62
     3
100
AcDbLine
 10
71.861639
 20
47.786719
 30
0.0
 11
71.861639
 21
28.111547
 31
0.0
  0
LINE
  5
40B
330
3FF
100
AcDbEntity
  8
CSLAYER2
  6
CONTINUOUS
 62
     3
100
AcDbLine
 10
151.961639
 20
28.911547
 30
0.0
 11
71.861639
 21
28.911547
 31
0.0
  0
TEXT
  5
40C
330
3FF
100
AcDbEntity
  8
CSLAYER2
 62
     3
100
AcDbText
 10
107.888725
 20
29.778751
 30
0.0
 40
3.0
  1
80.1
 41
0.963934
  7
ED_VECTOR
 72
     5
 11
116.288725
 21
29.778751
 31
0.0
100
AcDbText
  0
ENDBLK
  5
401
330
3FF
100
AcDbEntity
  8
0
100
AcDbBlockEnd
  0
ENDSEC
  0
SECTION
  2
ENTITIES
  0
LINE
  5
6F
330
1F
100
AcDbEntity
  8
0
  6
CONTINUOUS
 62
     7
100
AcDbLine
 10
69.161639
 20
52.346719
 30
0.0
 11
69.261639
 21
52.446719
 31
0.0
  0
LINE
  5
70
330
1F
100
AcDbEntity
  8
0
  6
CONTINUOUS
 62
     7
100
AcDbLine
 10
69.261639
 20
61.646719
 30
0.0
 11
69.161639
 21
61.746719
 31
0.0
  0
LINE
  5
71
330
1F
100
AcDbEntity
  8
0
  6
CONTINUOUS
 62
     7
100
AcDbLine
 10
69.161639
 20
61.746719
 30
0.0
 11
68.790137
 21
61.746719
 31
0.0
  0
LINE
  5
72
330
1F
100
AcDbEntity
  8
0
  6
CONTINUOUS
 62
     7
100
AcDbLine
 10
68.790137
 20
52.346719
 30
0.0
 11
69.161639
 21
52.346719
 31
0.0
  0
LINE
  5
73
330
1F
100
AcDbEntity
  8
0
  6
CONTINUOUS
 62
     7
100
AcDbLine
 10
71.761639
 20
52.446719
 30
0.0
 11
71.861639
 21
52.446719
 31
0.0
  0
LINE
  5
74
330
1F
100
AcDbEntity
  8
0
  6
CONTINUOUS
 62
     7
100
AcDbLine
 10
69.261639
 20
52.446719
 30
0.0
 11
69.361639
 21
52.446719
 31
0.0
  0
LINE
  5
75
330
1F
100
AcDbEntity
  8
0
  6
CONTINUOUS
 62
     7
100
AcDbLine
 10
69.361639
 20
61.646719
 30
0.0
 11
69.261639
 21
61.646719
 31
0.0
  0
LINE
  5
76
330
1F
100
AcDbEntity
  8
0
  6
CONTINUOUS
 62
     7
100
AcDbLine
 10
71.861639
 20
61.646719
 30
0.0
 11
71.761639
 21
61.646719
 31
0.0
  0
LINE
  5
77
330
1F
100
AcDbEntity
  8
0
  6
CONTINUOUS
 62
     7
100
AcDbLine
 10
47.490137
 20
55.546719
 30
0.0
 11
57.290137
 21
55.546719
 31
0.0
  0
LINE
  5
78
330
1F
100
AcDbEntity
  8
0
  6
CONTINUOUS
 62
     7
100
AcDbLine
 10
57.290137
 20
58.546719
 30
0.0
 11
47.490137
 21
58.546719
 31
0.0
  0
ARC
  5
79
330
1F
100
AcDbEntity
  8
0
  6
CONTINUOUS
 62
     7
100
AcDbCircle
 10
47.490136
 20
58.346719
 30
0.0
 40
0.2000000000000028
100
AcDbArc
 50
90.0
 51
180.0
  0
ARC
  5
7A
330
1F
100
AcDbEntity
  8
0
  6
CONTINUOUS
 62
     7
100
AcDbCircle
 10
47.490136
 20
55.746719
 30
0.0
 40
0.2000000000000028
100
AcDbArc
 50
180.0
 51
270.0
  0
ARC
  5
7B
330
1F
100
AcDbEntity
  8
0
  6
CONTINUOUS
 62
     7
100
AcDbCircle
 10
67.990136
 20
62.146719
 30
0.0
 40
0.8000000000000114
100
AcDbArc
 50
0.0
 51
90.0
  0
ARC
  5
7C
330
1F
100
AcDbEntity
  8
0
  6
CONTINUOUS
 62
     7
100
AcDbCircle
 10
67.990136
 20
51.946719
 30
0.0
 40
0.7999999999999972
100
AcDbArc
 50
270.0
 51
360.0
  0
LINE
  5
7D
330
1F
100
AcDbEntity
  8
0
  6
CONTINUOUS
 62
     7
100
AcDbLine
 10
64.440539
 20
51.146719
 30
0.0
 11
67.990137
 21
51.146719
 31
0.0
  0
LINE
  5
7E
330
1F
100
AcDbEntity
  8
0
  6
CONTINUOUS
 62
     7
100
AcDbLine
 10
67.990137
 20
62.946719
 30
0.0
 11
64.440539
 21
62.946719
 31
0.0
  0
LINE
  5
7F
330
1F
100
AcDbEntity
  8
0
  6
CONTINUOUS
 62
     7
100
AcDbLine
 10
60.848982
 20
51.146719
 30
0.0
 11
61.140539
 21
51.146719
 31
0.0
  0
LINE
  5
80
330
1F
100
AcDbEntity
  8
0
  6
CONTINUOUS
 62
     7
100
AcDbLine
 10
61.140539
 20
62.946719
 30
0.0
 11
60.848982
 21
62.946719
 31
0.0
  0
LINE
  5
81
330
1F
100
AcDbEntity
  8
0
  6
CONTINUOUS
 62
     7
100
AcDbLine
 10
61.140539
 20
51.146719
 30
0.0
 11
61.290136
 21
51.296719
 31
0.0
  0
LINE
  5
82
330
1F
100
AcDbEntity
  8
0
  6
CONTINUOUS
 62
     7
100
AcDbLine
 10
61.290136
 20
62.79672
 30
0.0
 11
61.140539
 21
62.946719
 31
0.0
  0
ARC
  5
83
330
1F
100
AcDbEntity
  8
0
  6
CONTINUOUS
 62
     7
100
AcDbCircle
 10
60.848982
 20
61.946719
 30
0.0
 40
1.000000000000008
100
AcDbArc
 50
90.0
 51
120.0
  0
ARC
  5
84
330
1F
100
AcDbEntity
  8
0
  6
CONTINUOUS
 62
     7
100
AcDbCircle
 10
60.848982
 20
52.146719
 30
0.0
 40
1.000000000000008
100
AcDbArc
 50
240.0
 51
270.0
  0
LINE
  5
85
330
1F
100
AcDbEntity
  8
0
  6
CONTINUOUS
 62
     7
100
AcDbLine
 10
64.440539
 20
62.946719
 30
0.0
 11
64.290137
 21
62.79672
 31
0.0
  0
LINE
  5
86
330
1F
100
AcDbEntity
  8
0
  6
CONTINUOUS
 62
     7
100
AcDbLine
 10
64.290137
 20
51.296719
 30
0.0
 11
64.440539
 21
51.146719
 31
0.0
  0
LINE
  5
87
330
1F
100
AcDbEntity
  8
0
  6
CONTINUOUS
 62
     7
100
AcDbLine
 10
60.348982
 20
62.812744
 30
0.0
 11
57.790136
 21
61.335394
 31
0.0
  0
LINE
  5
88
330
1F
100
AcDbEntity
  8
0
  6
CONTINUOUS
 62
     7
100
AcDbLine
 10
57.790136
 20
52.758044
 30
0.0
 11
60.348982
 21
51.280694
 31
0.0
  0
ARC
  5
89
330
1F
100
AcDbEntity
  8
0
  6
CONTINUOUS
 62
     7
100
AcDbCircle
 10
58.290136
 20
53.624069
 30
0.0
 40
1.000000000000008
100
AcDbArc
 50
180.0
 51
240.0
  0
ARC
  5
8A
330
1F
100
AcDbEntity
  8
0
  6
CONTINUOUS
 62
     7
100
AcDbCircle
 10
58.290136
 20
60.469369
 30
0.0
 40
1.000000000000008
100
AcDbArc
 50
120.0
 51
180.0
  0
ARC
  5
8B
330
1F
100
AcDbEntity
  8
0
  6
CONTINUOUS
 62
     7
100
AcDbCircle
 10
152.461639
 20
65.546719
 30
0.0
 40
0.5000000000000284
100
AcDbArc
 50
0.0
 51
180.0
  0
ARC
  5
8C
330
1F
100
AcDbEntity
  8
0
  6
CONTINUOUS
 62
     7
100
AcDbCircle
 10
152.461639
 20
48.546719
 30
0.0
 40
0.5000000000000284
100
AcDbArc
 50
180.0
 51
360.0
  0
LINE
  5
8D
330
1F
100
AcDbEntity
  8
0
  6
CONTINUOUS
 62
     7
100
AcDbLine
 10
152.961638
 20
48.546719
 30
0.0
 11
152.961638
 21
65.54672
 31
0.0
  0
LINE
  5
8E
330
1F
100
AcDbEntity
  8
0
  6
CONTINUOUS
 62
     7
100
AcDbLine
 10
149.761636
 20
66.496719
 30
0.0
 11
149.661641
 21
66.396719
 31
0.0
  0
LINE
  5
8F
330
1F
100
AcDbEntity
  8
0
  6
CONTINUOUS
 62
     7
100
AcDbLine
 10
149.661641
 20
47.696719
 30
0.0
 11
149.761636
 21
47.596719
 31
0.0
  0
LINE
  5
90
330
1F
100
AcDbEntity
  8
0
  6
CONTINUOUS
 62
     7
100
AcDbLine
 10
151.861641
 20
47.596719
 30
0.0
 11
151.961636
 21
47.696719
 31
0.0
  0
LINE
  5
91
330
1F
100
AcDbEntity
  8
0
  6
CONTINUOUS
 62
     7
100
AcDbLine
 10
151.961636
 20
66.396719
 30
0.0
 11
151.861641
 21
66.496719
 31
0.0
  0
LINE
  5
92
330
1F
100
AcDbEntity
  8
0
  6
CONTINUOUS
 62
     7
100
AcDbLine
 10
151.645597
 20
47.596719
 30
0.0
 11
151.861641
 21
47.596719
 31
0.0
  0
LINE
  5
93
330
1F
100
AcDbEntity
  8
0
  6
CONTINUOUS
 62
     7
100
AcDbLine
 10
149.761636
 20
47.596719
 30
0.0
 11
149.97777
 21
47.596719
 31
0.0
  0
LINE
  5
94
330
1F
100
AcDbEntity
  8
0
  6
CONTINUOUS
 62
     7
100
AcDbLine
 10
149.977702
 20
66.496719
 30
0.0
 11
149.761636
 21
66.496719
 31
0.0
  0
LINE
  5
95
330
1F
100
AcDbEntity
  8
0
  6
CONTINUOUS
 62
     7
100
AcDbLine
 10
151.861641
 20
66.496719
 30
0.0
 11
151.645552
 21
66.496719
 31
0.0
  0
LINE
  5
96
330
1F
100
AcDbEntity
  8
0
  6
CONTINUOUS
 62
     7
100
AcDbLine
 10
153.261643
 20
48.596719
 30
0.0
 11
155.76164
 21
48.596719
 31
0.0
  0
LINE
  5
97
330
1F
100
AcDbEntity
  8
0
  6
CONTINUOUS
 62
     7
100
AcDbLine
 10
155.76164
 20
65.496719
 30
0.0
 11
153.261643
 21
65.496719
 31
0.0
  0
LINE
  5
98
330
1F
100
AcDbEntity
  8
0
  6
CONTINUOUS
 62
     7
100
AcDbLine
 10
155.76164
 20
48.596719
 30
0.0
 11
156.061638
 21
48.896719
 31
0.0
  0
LINE
  5
99
330
1F
100
AcDbEntity
  8
0
  6
CONTINUOUS
 62
     7
100
AcDbLine
 10
156.061638
 20
65.196719
 30
0.0
 11
155.76164
 21
65.496719
 31
0.0
  0
LINE
  5
9A
330
1F
100
AcDbEntity
  8
0
  6
CONTINUOUS
 62
     7
100
AcDbLine
 10
159.861643
 20
48.896719
 30
0.0
 11
160.061639
 21
49.096719
 31
0.0
  0
LINE
  5
9B
330
1F
100
AcDbEntity
  8
0
  6
CONTINUOUS
 62
     7
100
AcDbLine
 10
160.061639
 20
64.99672
 30
0.0
 11
159.861643
 21
65.196719
 31
0.0
  0
LINE
  5
9C
330
1F
100
AcDbEntity
  8
0
  6
CONTINUOUS
 62
     7
100
AcDbLine
 10
156.061638
 20
48.896719
 30
0.0
 11
159.861643
 21
48.896719
 31
0.0
  0
LINE
  5
9D
330
1F
100
AcDbEntity
  8
0
  6
CONTINUOUS
 62
     7
100
AcDbLine
 10
159.861643
 20
65.196719
 30
0.0
 11
156.061638
 21
65.196719
 31
0.0
  0
LINE
  5
9E
330
1F
100
AcDbEntity
  8
0
  6
CONTINUOUS
 62
     7
100
AcDbLine
 10
152.961638
 20
49.046719
 30
0.0
 11
153.261643
 21
49.046719
 31
0.0
  0
LINE
  5
9F
330
1F
100
AcDbEntity
  8
0
  6
CONTINUOUS
 62
     7
100
AcDbLine
 10
153.261643
 20
65.046719
 30
0.0
 11
152.961638
 21
65.046719
 31
0.0
  0
LINE
  5
A0
330
1F
100
AcDbEntity
  8
0
  6
CONTINUOUS
 62
     7
100
AcDbLine
 10
73.961639
 20
47.596719
 30
0.0
 11
74.061639
 21
47.696719
 31
0.0
  0
LINE
  5
A1
330
1F
100
AcDbEntity
  8
0
  6
CONTINUOUS
 62
     7
100
AcDbLine
 10
74.061639
 20
66.396719
 30
0.0
 11
73.961639
 21
66.496719
 31
0.0
  0
LINE
  5
A2
330
1F
100
AcDbEntity
  8
0
  6
CONTINUOUS
 62
     7
100
AcDbLine
 10
73.77988
 20
47.596719
 30
0.0
 11
73.961639
 21
47.596719
 31
0.0
  0
LINE
  5
A3
330
1F
100
AcDbEntity
  8
0
  6
CONTINUOUS
 62
     7
100
AcDbLine
 10
72.061639
 20
47.596719
 30
0.0
 11
72.147736
 21
47.596719
 31
0.0
  0
LINE
  5
A4
330
1F
100
AcDbEntity
  8
0
  6
CONTINUOUS
 62
     7
100
AcDbLine
 10
72.14499
 20
66.496719
 30
0.0
 11
72.061639
 21
66.496719
 31
0.0
  0
LINE
  5
A5
330
1F
100
AcDbEntity
  8
0
  6
CONTINUOUS
 62
     7
100
AcDbLine
 10
73.961639
 20
66.496719
 30
0.0
 11
73.783834
 21
66.496719
 31
0.0
  0
LINE
  5
A6
330
1F
100
AcDbEntity
  8
0
  6
CONTINUOUS
 62
     7
100
AcDbLine
 10
72.061639
 20
66.496719
 30
0.0
 11
71.861639
 21
66.296719
 31
0.0
  0
LINE
  5
A7
330
1F
100
AcDbEntity
  8
0
  6
CONTINUOUS
 62
     7
100
AcDbLine
 10
71.861639
 20
47.796719
 30
0.0
 11
72.061639
 21
47.596719
 31
0.0
  0
LINE
  5
A8
330
1F
100
AcDbEntity
  8
0
  6
CONTINUOUS
 62
     7
100
AcDbLine
 10
74.061639
 20
49.546719
 30
0.0
 11
74.261639
 21
49.546719
 31
0.0
  0
LINE
  5
A9
330
1F
100
AcDbEntity
  8
0
  6
CONTINUOUS
 62
     7
100
AcDbLine
 10
74.261639
 20
64.546719
 30
0.0
 11
74.061639
 21
64.546719
 31
0.0
  0
LINE
  5
AA
330
1F
100
AcDbEntity
  8
0
  6
CONTINUOUS
 62
     7
100
AcDbLine
 10
78.261639
 20
47.521719
 30
0.0
 11
134.361639
 21
47.521719
 31
0.0
  0
LINE
  5
AB
330
1F
100
AcDbEntity
  8
0
  6
CONTINUOUS
 62
     7
100
AcDbLine
 10
134.361639
 20
66.571719
 30
0.0
 11
78.261639
 21
66.571719
 31
0.0
  0
LINE
  5
AC
330
1F
100
AcDbEntity
  8
0
  6
CONTINUOUS
 62
     7
100
AcDbLine
 10
74.989721
 20
47.531719
 30
0.0
 11
78.261639
 21
47.531719
 31
0.0
  0
LINE
  5
AD
330
1F
100
AcDbEntity
  8
0
  6
CONTINUOUS
 62
     7
100
AcDbLine
 10
78.261639
 20
66.561719
 30
0.0
 11
74.989721
 21
66.561719
 31
0.0
  0
LINE
  5
AE
330
1F
100
AcDbEntity
  8
0
  6
CONTINUOUS
 62
     7
100
AcDbLine
 10
74.989721
 20
66.561719
 30
0.0
 11
74.261639
 21
66.296719
 31
0.0
  0
LINE
  5
AF
330
1F
100
AcDbEntity
  8
0
  6
CONTINUOUS
 62
     7
100
AcDbLine
 10
74.261639
 20
47.796719
 30
0.0
 11
74.989721
 21
47.531719
 31
0.0
  0
LINE
  5
B0
330
1F
100
AcDbEntity
  8
0
  6
CONTINUOUS
 62
     7
100
AcDbLine
 10
134.361639
 20
47.531719
 30
0.0
 11
149.56164
 21
47.531719
 31
0.0
  0
LINE
  5
B1
330
1F
100
AcDbEntity
  8
0
  6
CONTINUOUS
 62
     7
100
AcDbLine
 10
149.56164
 20
66.561719
 30
0.0
 11
134.361639
 21
66.561719
 31
0.0
  0
LINE
  5
B2
330
1F
100
AcDbEntity
  8
0
  6
CONTINUOUS
 62
     7
100
AcDbLine
 10
149.56164
 20
47.531719
 30
0.0
 11
149.661641
 21
47.631719
 31
0.0
  0
LINE
  5
B3
330
1F
100
AcDbEntity
  8
0
  6
CONTINUOUS
 62
     7
100
AcDbLine
 10
149.661641
 20
66.461719
 30
0.0
 11
149.56164
 21
66.561719
 31
0.0
  0
LINE
  5
B4
330
1F
100
AcDbEntity
  8
0
  6
CONTINUOUS
 62
     7
100
AcDbLine
 10
69.261639
 20
52.446719
 30
0.0
 11
69.261639
 21
61.646719
 31
0.0
  0
LINE
  5
B5
330
1F
100
AcDbEntity
  8
0
  6
CONTINUOUS
 62
     7
100
AcDbLine
 10
71.761639
 20
53.046719
 30
0.0
 11
69.361639
 21
53.046719
 31
0.0
  0
LINE
  5
B6
330
1F
100
AcDbEntity
  8
0
  6
CONTINUOUS
 62
     7
100
AcDbLine
 10
69.361639
 20
53.046719
 30
0.0
 11
69.361639
 21
52.446719
 31
0.0
  0
LINE
  5
B7
330
1F
100
AcDbEntity
  8
0
  6
CONTINUOUS
 62
     7
100
AcDbLine
 10
71.761639
 20
53.046719
 30
0.0
 11
71.761639
 21
52.446719
 31
0.0
  0
LINE
  5
B8
330
1F
100
AcDbEntity
  8
0
  6
CONTINUOUS
 62
     7
100
AcDbLine
 10
69.361639
 20
61.646719
 30
0.0
 11
69.361639
 21
61.046719
 31
0.0
  0
LINE
  5
B9
330
1F
100
AcDbEntity
  8
0
  6
CONTINUOUS
 62
     7
100
AcDbLine
 10
71.761639
 20
61.046719
 30
0.0
 11
69.361639
 21
61.046719
 31
0.0
  0
LINE
  5
BA
330
1F
100
AcDbEntity
  8
0
  6
CONTINUOUS
 62
     7
100
AcDbLine
 10
71.761639
 20
61.646719
 30
0.0
 11
71.761639
 21
61.046719
 31
0.0
  0
LINE
  5
BB
330
1F
100
AcDbEntity
  8
0
  6
CONTINUOUS
 62
     7
100
AcDbLine
 10
47.290137
 20
55.746719
 30
0.0
 11
47.290137
 21
58.346719
 31
0.0
  0
LINE
  5
BC
330
1F
100
AcDbEntity
  8
0
  6
CONTINUOUS
 62
     7
100
AcDbLine
 10
68.790137
 20
62.146719
 30
0.0
 11
68.790137
 21
51.946719
 31
0.0
  0
LINE
  5
BD
330
1F
100
AcDbEntity
  8
0
  6
CONTINUOUS
 62
     7
100
AcDbLine
 10
61.290136
 20
58.723772
 30
0.0
 11
61.290136
 21
62.546719
 31
0.0
  0
LINE
  5
BE
330
1F
100
AcDbEntity
  8
0
  6
CONTINUOUS
 62
     7
100
AcDbLine
 10
61.290136
 20
55.369666
 30
0.0
 11
61.290136
 21
58.723772
 31
0.0
  0
LINE
  5
BF
330
1F
100
AcDbEntity
  8
0
  6
CONTINUOUS
 62
     7
100
AcDbLine
 10
61.290136
 20
51.546719
 30
0.0
 11
61.290136
 21
55.369666
 31
0.0
  0
LINE
  5
C0
330
1F
100
AcDbEntity
  8
0
  6
CONTINUOUS
 62
     7
100
AcDbLine
 10
61.290136
 20
51.296719
 30
0.0
 11
61.290136
 21
51.546719
 31
0.0
  0
LINE
  5
C1
330
1F
100
AcDbEntity
  8
0
  6
CONTINUOUS
 62
     7
100
AcDbLine
 10
61.290136
 20
62.546719
 30
0.0
 11
61.290136
 21
62.79672
 31
0.0
  0
LINE
  5
C2
330
1F
100
AcDbEntity
  8
0
  6
CONTINUOUS
 62
     7
100
AcDbLine
 10
64.290137
 20
51.296719
 30
0.0
 11
64.290137
 21
51.546719
 31
0.0
  0
LINE
  5
C3
330
1F
100
AcDbEntity
  8
0
  6
CONTINUOUS
 62
     7
100
AcDbLine
 10
64.290137
 20
51.546719
 30
0.0
 11
64.290137
 21
55.369666
 31
0.0
  0
LINE
  5
C4
330
1F
100
AcDbEntity
  8
0
  6
CONTINUOUS
 62
     7
100
AcDbLine
 10
64.290137
 20
55.369666
 30
0.0
 11
64.290137
 21
58.723772
 31
0.0
  0
LINE
  5
C5
330
1F
100
AcDbEntity
  8
0
  6
CONTINUOUS
 62
     7
100
AcDbLine
 10
64.290137
 20
58.723772
 30
0.0
 11
64.290137
 21
62.546719
 31
0.0
  0
LINE
  5
C6
330
1F
100
AcDbEntity
  8
0
  6
CONTINUOUS
 62
     7
100
AcDbLine
 10
64.290137
 20
62.546719
 30
0.0
 11
64.290137
 21
62.79672
 31
0.0
  0
LINE
  5
C7
330
1F
100
AcDbEntity
  8
0
  6
CONTINUOUS
 62
     7
100
AcDbLine
 10
64.290137
 20
51.546719
 30
0.0
 11
64.140539
 21
51.546719
 31
0.0
  0
LINE
  5
C8
330
1F
100
AcDbEntity
  8
0
  6
CONTINUOUS
 62
     7
100
AcDbLine
 10
64.140539
 20
51.546719
 30
0.0
 11
64.140539
 21
54.911304
 31
0.0
  0
LINE
  5
C9
330
1F
100
AcDbEntity
  8
0
  6
CONTINUOUS
 62
     7
100
AcDbLine
 10
64.140539
 20
54.911304
 30
0.0
 11
64.290137
 21
55.369666
 31
0.0
  0
LINE
  5
CA
330
1F
100
AcDbEntity
  8
0
  6
CONTINUOUS
 62
     7
100
AcDbLine
 10
64.140539
 20
59.182135
 30
0.0
 11
64.140539
 21
62.546719
 31
0.0
  0
LINE
  5
CB
330
1F
100
AcDbEntity
  8
0
  6
CONTINUOUS
 62
     7
100
AcDbLine
 10
64.140539
 20
62.546719
 30
0.0
 11
64.290137
 21
62.546719
 31
0.0
  0
LINE
  5
CC
330
1F
100
AcDbEntity
  8
0
  6
CONTINUOUS
 62
     7
100
AcDbLine
 10
64.290137
 20
58.723772
 30
0.0
 11
64.140539
 21
59.182135
 31
0.0
  0
LINE
  5
CD
330
1F
100
AcDbEntity
  8
0
  6
CONTINUOUS
 62
     7
100
AcDbLine
 10
61.440539
 20
51.546719
 30
0.0
 11
61.440539
 21
54.911304
 31
0.0
  0
LINE
  5
CE
330
1F
100
AcDbEntity
  8
0
  6
CONTINUOUS
 62
     7
100
AcDbLine
 10
61.440539
 20
51.546719
 30
0.0
 11
61.290136
 21
51.546719
 31
0.0
  0
LINE
  5
CF
330
1F
100
AcDbEntity
  8
0
  6
CONTINUOUS
 62
     7
100
AcDbLine
 10
61.290136
 20
55.369666
 30
0.0
 11
61.440539
 21
54.911304
 31
0.0
  0
LINE
  5
D0
330
1F
100
AcDbEntity
  8
0
  6
CONTINUOUS
 62
     7
100
AcDbLine
 10
61.440539
 20
54.911304
 30
0.0
 11
64.140539
 21
54.911304
 31
0.0
  0
LINE
  5
D1
330
1F
100
AcDbEntity
  8
0
  6
CONTINUOUS
 62
     7
100
AcDbLine
 10
61.440539
 20
59.182135
 30
0.0
 11
61.290136
 21
58.723772
 31
0.0
  0
LINE
  5
D2
330
1F
100
AcDbEntity
  8
0
  6
CONTINUOUS
 62
     7
100
AcDbLine
 10
64.140539
 20
59.182135
 30
0.0
 11
61.440539
 21
59.182135
 31
0.0
  0
LINE
  5
D3
330
1F
100
AcDbEntity
  8
0
  6
CONTINUOUS
 62
     7
100
AcDbLine
 10
61.290136
 20
62.546719
 30
0.0
 11
61.440539
 21
62.546719
 31
0.0
  0
LINE
  5
D4
330
1F
100
AcDbEntity
  8
0
  6
CONTINUOUS
 62
     7
100
AcDbLine
 10
61.440539
 20
59.182135
 30
0.0
 11
61.440539
 21
62.546719
 31
0.0
  0
LINE
  5
D5
330
1F
100
AcDbEntity
  8
0
  6
CONTINUOUS
 62
     7
100
AcDbLine
 10
61.440539
 20
62.546719
 30
0.0
 11
64.140539
 21
62.546719
 31
0.0
  0
LINE
  5
D6
330
1F
100
AcDbEntity
  8
0
  6
CONTINUOUS
 62
     7
100
AcDbLine
 10
64.140539
 20
51.546719
 30
0.0
 11
61.440539
 21
51.546719
 31
0.0
  0
LINE
  5
D7
330
1F
100
AcDbEntity
  8
0
  6
CONTINUOUS
 62
     7
100
AcDbLine
 10
57.290137
 20
57.046719
 30
0.0
 11
57.290137
 21
60.469369
 31
0.0
  0
LINE
  5
D8
330
1F
100
AcDbEntity
  8
0
  6
CONTINUOUS
 62
     7
100
AcDbLine
 10
57.290137
 20
53.624069
 30
0.0
 11
57.290137
 21
57.046719
 31
0.0
  0
LINE
  5
D9
330
1F
100
AcDbEntity
  8
0
  6
CONTINUOUS
 62
     7
100
AcDbLine
 10
151.961636
 20
66.396719
 30
0.0
 11
151.961636
 21
47.696719
 31
0.0
  0
INSERT
  5
DD
330
1F
100
AcDbEntity
  8
0
100
AcDbBlockReference
  2
BLKF011
 10
0.0
 20
0.0
 30
0.0
  0
LINE
  5
10C
330
1F
100
AcDbEntity
  8
0
  6
CONTINUOUS
 62
     7
100
AcDbLine
 10
150.727149
 20
66.459852
 30
0.0
 11
150.8121
 21
66.459119
 31
0.0
  0
INSERT
  5
110
330
1F
100
AcDbEntity
  8
0
100
AcDbBlockReference
  2
BLKF012
 10
0.0
 20
0.0
 30
0.0
  0
INSERT
  5
24E
330
1F
100
AcDbEntity
  8
0
100
AcDbBlockReference
  2
BLKF013
 10
0.0
 20
0.0
 30
0.0
  0
LINE
  5
25C
330
1F
100
AcDbEntity
  8
0
  6
CONTINUOUS
 62
     7
100
AcDbLine
 10
153.261643
 20
48.596719
 30
0.0
 11
153.261643
 21
65.496719
 31
0.0
  0
LINE
  5
25D
330
1F
100
AcDbEntity
  8
0
  6
CONTINUOUS
 62
     7
100
AcDbLine
 10
156.061638
 20
48.896719
 30
0.0
 11
156.061638
 21
65.196719
 31
0.0
  0
LINE
  5
25E
330
1F
100
AcDbEntity
  8
0
  6
CONTINUOUS
 62
     7
100
AcDbLine
 10
160.061639
 20
64.99672
 30
0.0
 11
160.061639
 21
49.096719
 31
0.0
  0
LINE
  5
25F
330
1F
100
AcDbEntity
  8
0
  6
CONTINUOUS
 62
     7
100
AcDbLine
 10
74.061639
 20
57.046719
 30
0.0
 11
74.061639
 21
47.696719
 31
0.0
  0
LINE
  5
260
330
1F
100
AcDbEntity
  8
0
  6
CONTINUOUS
 62
     7
100
AcDbLine
 10
74.061639
 20
66.396719
 30
0.0
 11
74.061639
 21
57.046719
 31
0.0
  0
INSERT
  5
264
330
1F
100
AcDbEntity
  8
0
100
AcDbBlockReference
  2
BLKF014
 10
0.0
 20
0.0
 30
0.0
  0
INSERT
  5
277
330
1F
100
AcDbEntity
  8
0
100
AcDbBlockReference
  2
BLKF015
 10
0.0
 20
0.0
 30
0.0
  0
INSERT
  5
315
330
1F
100
AcDbEntity
  8
0
100
AcDbBlockReference
  2
BLKF016
 10
0.0
 20
0.0
 30
0.0
  0
INSERT
  5
323
330
1F
100
AcDbEntity
  8
0
100
AcDbBlockReference
  2
BLKF017
 10
0.0
 20
0.0
 30
0.0
  0
LINE
  5
38E
330
1F
100
AcDbEntity
  8
0
  6
CONTINUOUS
 62
     7
100
AcDbLine
 10
71.861639
 20
47.796719
 30
0.0
 11
71.861639
 21
66.296719
 31
0.0
  0
LINE
  5
38F
330
1F
100
AcDbEntity
  8
0
  6
CONTINUOUS
 62
     7
100
AcDbLine
 10
78.261639
 20
57.046719
 30
0.0
 11
78.261639
 21
66.571719
 31
0.0
  0
LINE
  5
390
330
1F
100
AcDbEntity
  8
0
  6
CONTINUOUS
 62
     7
100
AcDbLine
 10
78.261639
 20
47.521719
 30
0.0
 11
78.261639
 21
57.046719
 31
0.0
  0
LINE
  5
391
330
1F
100
AcDbEntity
  8
0
  6
CONTINUOUS
 62
     7
100
AcDbLine
 10
134.361639
 20
57.046719
 30
0.0
 11
134.361639
 21
66.571719
 31
0.0
  0
LINE
  5
392
330
1F
100
AcDbEntity
  8
0
  6
CONTINUOUS
 62
     7
100
AcDbLine
 10
134.361639
 20
47.521719
 30
0.0
 11
134.361639
 21
57.046719
 31
0.0
  0
LINE
  5
393
330
1F
100
AcDbEntity
  8
0
  6
CONTINUOUS
 62
     7
100
AcDbLine
 10
74.989721
 20
57.046719
 30
0.0
 11
74.989721
 21
66.561719
 31
0.0
  0
LINE
  5
394
330
1F
100
AcDbEntity
  8
0
  6
CONTINUOUS
 62
     7
100
AcDbLine
 10
74.989721
 20
47.531719
 30
0.0
 11
74.989721
 21
57.046719
 31
0.0
  0
LINE
  5
395
330
1F
100
AcDbEntity
  8
0
  6
CONTINUOUS
 62
     7
100
AcDbLine
 10
74.261639
 20
57.046719
 30
0.0
 11
74.261639
 21
66.296719
 31
0.0
  0
LINE
  5
396
330
1F
100
AcDbEntity
  8
0
  6
CONTINUOUS
 62
     7
100
AcDbLine
 10
74.261639
 20
47.796719
 30
0.0
 11
74.261639
 21
57.046719
 31
0.0
  0
LINE
  5
397
330
1F
100
AcDbEntity
  8
0
  6
CONTINUOUS
 62
     7
100
AcDbLine
 10
149.661641
 20
57.046719
 30
0.0
 11
149.661641
 21
47.631719
 31
0.0
  0
LINE
  5
398
330
1F
100
AcDbEntity
  8
0
  6
CONTINUOUS
 62
     7
100
AcDbLine
 10
149.661641
 20
66.461719
 30
0.0
 11
149.661641
 21
57.046719
 31
0.0
  0
LINE
  5
399
330
1F
100
AcDbEntity
  8
0
  6
CONTINUOUS
 62
     8
100
AcDbLine
 10
67.990137
 20
51.146719
 30
0.0
 11
67.990137
 21
62.946719
 31
0.0
  0
LINE
  5
39A
330
1F
100
AcDbEntity
  8
0
  6
CONTINUOUS
 62
     8
100
AcDbLine
 10
60.848982
 20
62.946719
 30
0.0
 11
60.848982
 21
51.146719
 31
0.0
  0
LINE
  5
39B
330
1F
100
AcDbEntity
  8
0
  6
CONTINUOUS
 62
     8
100
AcDbLine
 10
60.348982
 20
57.046719
 30
0.0
 11
60.348982
 21
62.812744
 31
0.0
  0
LINE
  5
39C
330
1F
100
AcDbEntity
  8
0
  6
CONTINUOUS
 62
     8
100
AcDbLine
 10
60.348982
 20
51.280694
 30
0.0
 11
60.348982
 21
57.046719
 31
0.0
  0
LINE
  5
39D
330
1F
100
AcDbEntity
  8
0
  6
CONTINUOUS
 62
     8
100
AcDbLine
 10
57.790136
 20
57.046719
 30
0.0
 11
57.790136
 21
52.758044
 31
0.0
  0
LINE
  5
39E
330
1F
100
AcDbEntity
  8
0
  6
CONTINUOUS
 62
     8
100
AcDbLine
 10
57.790136
 20
61.335394
 30
0.0
 11
57.790136
 21
57.046719
 31
0.0
  0
LINE
  5
39F
330
1F
100
AcDbEntity
  8
CSLAYER2
  6
CONTINUOUS
 62
     3
100
AcDbLine
 10
44.822413
 20
57.046719
 30
0.0
 11
162.5637
 21
57.046719
 31
0.0
  0
INSERT
  5
3A3
330
1F
100
AcDbEntity
  8
0
100
AcDbBlockReference
  2
BLKF018
 10
0.0
 20
0.0
 30
0.0
  0
INSERT
  5
3B1
330
1F
100
AcDbEntity
  8
0
100
AcDbBlockReference
  2
BLKF019
 10
0.0
 20
0.0
 30
0.0
  0
INSERT
  5
3C5
330
1F
100
AcDbEntity
  8
0
100
AcDbBlockReference
  2
BLKF020
 10
0.0
 20
0.0
 30
0.0
  0
INSERT
  5
3D6
330
1F
100
AcDbEntity
  8
0
100
AcDbBlockReference
  2
BLKF021
 10
0.0
 20
0.0
 30
0.0
  0
INSERT
  5
3E4
330
1F
100
AcDbEntity
  8
0
100
AcDbBlockReference
  2
BLKF022
 10
0.0
 20
0.0
 30
0.0
  0
INSERT
  5
3F2
330
1F
100
AcDbEntity
  8
0
100
AcDbBlockReference
  2
BLKF023
 10
0.0
 20
0.0
 30
0.0
  0
INSERT
  5
402
330
1F
100
AcDbEntity
  8
0
100
AcDbBlockReference
  2
BLKF024
 10
0.0
 20
0.0
 30
0.0
  0
ENDSEC
  0
SECTION
  2
OBJECTS
  0
DICTIONARY
  5
C
330
0
100
AcDbDictionary
  3
ACAD_GROUP
350
D
  3
ACAD_LAYOUT
350
1A
  3
ACAD_MLINESTYLE
350
17
  3
ACAD_PLOTSETTINGS
350
19
1001
ACAD
1000
TREAT_AS_HARD
1070
     0
  0
DICTIONARY
  5
D
102
{ACAD_REACTORS
330
C
102
}
330
C
100
AcDbDictionary
1001
ACAD
1000
TREAT_AS_HARD
1070
     0
  0
DICTIONARY
  5
1A
102
{ACAD_REACTORS
330
C
102
}
330
C
100
AcDbDictionary
1001
ACAD
1000
TREAT_AS_HARD
1070
     0
  0
DICTIONARY
  5
17
102
{ACAD_REACTORS
330
C
102
}
330
C
100
AcDbDictionary
  3
STANDARD
350
18
1001
ACAD
1000
TREAT_AS_HARD
1070
     0
  0
DICTIONARY
  5
19
102
{ACAD_REACTORS
330
C
102
}
330
C
100
AcDbDictionary
1001
ACAD
1000
TREAT_AS_HARD
1070
     0
  0
MLINESTYLE
  5
18
102
{ACAD_REACTORS
330
17
102
}
330
17
100
AcDbMlineStyle
  2
Standard
 70
     0
  3

 62
   256
 51
90.0
 52
90.0
 71
     2
 49
0.5
 62
   256
  6
BYLAYER
 49
-0.5
 62
   256
  6
BYLAYER
  0
ENDSEC
  0
EOF
