  0
SECTION
  2
HEADER
  9
$ACADVER
  1
AC1012
  9
$DWGCODEPAGE
  3
ansi_932
  9
$INSBASE
 10
0.0
 20
0.0
 30
0.0
  9
$EXTMIN
 10
0.0
 20
0.0
 30
0.0
  9
$EXTMAX
 10
152.771503
 20
76.119303
 30
0.0
  9
$LIMMIN
 10
0.0
 20
0.0
  9
$LIMMAX
 10
152.771503
 20
76.119303
  9
$ORTHOMODE
 70
     0
  9
$REGENMODE
 70
     1
  9
$FILLMODE
 70
     1
  9
$QTEXTMODE
 70
     0
  9
$MIRRTEXT
 70
     1
  9
$DRAGMODE
 70
     2
  9
$LTSCALE
 40
1.0
  9
$OSMODE
 70
    37
  9
$ATTMODE
 70
     1
  9
$TEXTSIZE
 40
0.2
  9
$TRACEWID
 40
0.05
  9
$TEXTSTYLE
  7
ED_VECTOR
  9
$CLAYER
  8
0
  9
$CELTYPE
  6
BYLAYER
  9
$CECOLOR
 62
   256
  9
$CELTSCALE
 40
1.0
  9
$DELOBJ
 70
     1
  9
$DISPSILH
 70
     0
  9
$DIMSCALE
 40
1.0
  9
$DIMASZ
 40
3.0
  9
$DIMEXO
 40
1.0
  9
$DIMDLI
 40
10.0
  9
$DIMRND
 40
0.0
  9
$DIMDLE
 40
5.0
  9
$DIMEXE
 40
1.0
  9
$DIMTP
 40
0.0
  9
$DIMTM
 40
0.0
  9
$DIMTXT
 40
4.0
  9
$DIMCEN
 40
2.5
  9
$DIMTSZ
 40
0.0
  9
$DIMTOL
 70
     0
  9
$DIMLIM
 70
     0
  9
$DIMTIH
 70
     0
  9
$DIMTOH
 70
     0
  9
$DIMSE1
 70
     0
  9
$DIMSE2
 70
     0
  9
$DIMTAD
 70
     1
  9
$DIMZIN
 70
     8
  9
$DIMBLK
  1

  9
$DIMASO
 70
     1
  9
$DIMSHO
 70
     1
  9
$DIMPOST
  1

  9
$DIMAPOST
  1

  9
$DIMALT
 70
     0
  9
$DIMALTD
 70
     3
  9
$DIMALTF
 40
0.03937
  9
$DIMLFAC
 40
1.0
  9
$DIMTOFL
 70
     1
  9
$DIMTVP
 40
0.0
  9
$DIMTIX
 70
     0
  9
$DIMSOXD
 70
     0
  9
$DIMSAH
 70
     1
  9
$DIMBLK1
  1
EDTIP_ARROW_S
  9
$DIMBLK2
  1
EDTIP_ARROW_E
  9
$DIMSTYLE
  2
EDDIMINFO
  9
$DIMCLRD
 70
     7
  9
$DIMCLRE
 70
     7
  9
$DIMCLRT
 70
     7
  9
$DIMTFAC
 40
1.0
  9
$DIMGAP
 40
1.0
  9
$DIMJUST
 70
     0
  9
$DIMSD1
 70
     0
  9
$DIMSD2
 70
     0
  9
$DIMTOLJ
 70
     0
  9
$DIMTZIN
 70
     8
  9
$DIMALTZ
 70
     0
  9
$DIMALTTZ
 70
     0
  9
$DIMFIT
 70
     3
  9
$DIMUPT
 70
     0
  9
$DIMUNIT
 70
     2
  9
$DIMDEC
 70
     2
  9
$DIMTDEC
 70
     2
  9
$DIMALTU
 70
     2
  9
$DIMALTTD
 70
     3
  9
$DIMTXSTY
  7
ED_VECTOR
  9
$DIMAUNIT
 70
     0
  9
$LUNITS
 70
     2
  9
$LUPREC
 70
     4
  9
$SKETCHINC
 40
0.1
  9
$FILLETRAD
 40
0.5
  9
$AUNITS
 70
     0
  9
$AUPREC
 70
     0
  9
$MENU
  1
.
  9
$ELEVATION
 40
0.0
  9
$PELEVATION
 40
0.0
  9
$THICKNESS
 40
0.0
  9
$LIMCHECK
 70
     0
  9
$CHAMFERA
 40
0.5
  9
$CHAMFERB
 40
0.5
  9
$CHAMFERC
 40
1.0
  9
$CHAMFERD
 40
0.0
  9
$SKPOLY
 70
     0
  9
$TDCREATE
 40
2456043.681824109
  9
$TDUPDATE
 40
2456043.68182412
  9
$TDINDWG
 40
0.0000000116
  9
$TDUSRTIMER
 40
0.0000000116
  9
$USRTIMER
 70
     1
  9
$ANGBASE
 50
0.0
  9
$ANGDIR
 70
     0
  9
$PDMODE
 70
     0
  9
$PDSIZE
 40
0.0
  9
$PLINEWID
 40
0.0
  9
$COORDS
 70
     1
  9
$SPLFRAME
 70
     0
  9
$SPLINETYPE
 70
     6
  9
$SPLINESEGS
 70
     8
  9
$ATTDIA
 70
     0
  9
$ATTREQ
 70
     1
  9
$HANDLING
 70
     1
  9
$HANDSEED
  5
3C3
  9
$SURFTAB1
 70
     6
  9
$SURFTAB2
 70
     6
  9
$SURFTYPE
 70
     6
  9
$SURFU
 70
     6
  9
$SURFV
 70
     6
  9
$UCSNAME
  2

  9
$UCSORG
 10
0.0
 20
0.0
 30
0.0
  9
$UCSXDIR
 10
1.0
 20
0.0
 30
0.0
  9
$UCSYDIR
 10
0.0
 20
1.0
 30
0.0
  9
$PUCSNAME
  2

  9
$PUCSORG
 10
0.0
 20
0.0
 30
0.0
  9
$PUCSXDIR
 10
1.0
 20
0.0
 30
0.0
  9
$PUCSYDIR
 10
0.0
 20
1.0
 30
0.0
  9
$USERI1
 70
     0
  9
$USERI2
 70
     0
  9
$USERI3
 70
     0
  9
$USERI4
 70
     0
  9
$USERI5
 70
     0
  9
$USERR1
 40
0.0
  9
$USERR2
 40
0.0
  9
$USERR3
 40
0.0
  9
$USERR4
 40
0.0
  9
$USERR5
 40
0.0
  9
$WORLDVIEW
 70
     1
  9
$SHADEDGE
 70
     3
  9
$SHADEDIF
 70
    70
  9
$TILEMODE
 70
     1
  9
$MAXACTVP
 70
    64
  9
$PINSBASE
 10
0.0
 20
0.0
 30
0.0
  9
$PLIMCHECK
 70
     0
  9
$PEXTMIN
 10
1.000000E+20
 20
1.000000E+20
 30
1.000000E+20
  9
$PEXTMAX
 10
-1.000000E+20
 20
-1.000000E+20
 30
-1.000000E+20
  9
$PLIMMIN
 10
0.0
 20
0.0
  9
$PLIMMAX
 10
12.0
 20
9.0
  9
$UNITMODE
 70
     0
  9
$VISRETAIN
 70
     1
  9
$PLINEGEN
 70
     0
  9
$PSLTSCALE
 70
     1
  9
$TREEDEPTH
 70
  3020
  9
$PICKSTYLE
 70
     1
  9
$CMLSTYLE
  2
STANDARD
  9
$CMLJUST
 70
     0
  9
$CMLSCALE
 40
1.0
  9
$SAVEIMAGES
 70
     1
  0
ENDSEC
  0
SECTION
  2
CLASSES
  0
CLASS
  1
ACDBDICTIONARYWDFLT
  2
AcDbDictionaryWithDefault
  3
ObjectDBX Classes
 90
    32768
280
     0
281
     0
  0
CLASS
  1
XRECORD
  2
AcDbXrecord
  3
AutoCAD 2000
 90
    32768
280
     0
281
     0
  0
CLASS
  1
LWPOLYLINE
  2
AcDbPolyline
  3
AutoCAD 2000
 90
    32768
280
     0
281
     1
  0
CLASS
  1
HATCH
  2
AcDbHatch
  3
AutoCAD 2000
 90
    32768
280
     0
281
     1
  0
CLASS
  1
ACDBPLACEHOLDER
  2
AcDbPlaceHolder
  3
ObjectDBX Classes
 90
        0
280
     0
281
     0
  0
CLASS
  1
LAYOUT
  2
AcDbLayout
  3
ObjectDBX Classes
 90
        0
280
     0
281
     0
  0
ENDSEC
  0
SECTION
  2
TABLES
  0
TABLE
  2
VPORT
  5
8
330
0
100
AcDbSymbolTable
 70
     1
  0
VPORT
  5
29
330
8
100
AcDbSymbolTableRecord
100
AcDbViewportTableRecord
  2
*ACTIVE
 70
     0
 10
0.0
 20
0.0
 11
1.0
 21
1.0
 12
76.385751
 22
38.059652
 13
0.0
 23
0.0
 14
0.5
 24
0.5
 15
0.5
 25
0.5
 16
0.0
 26
0.0
 36
1.0
 17
0.0
 27
0.0
 37
0.0
 40
76.119303
 41
2.007001
 42
50.0
 43
0.0
 44
0.0
 50
0.0
 51
0.0
 71
     0
 72
   100
 73
     1
 74
     3
 75
     0
 76
     0
 77
     0
 78
     0
  0
ENDTAB
  0
TABLE
  2
LTYPE
  5
5
330
0
100
AcDbSymbolTable
 70
     5
  0
LTYPE
  5
14
330
5
100
AcDbSymbolTableRecord
100
AcDbLinetypeTableRecord
  2
BYBLOCK
 70
     0
  3

 72
    65
 73
     0
 40
0.0
  0
LTYPE
  5
15
330
5
100
AcDbSymbolTableRecord
100
AcDbLinetypeTableRecord
  2
BYLAYER
 70
     0
  3

 72
    65
 73
     0
 40
0.0
  0
LTYPE
  5
16
330
5
100
AcDbSymbolTableRecord
100
AcDbLinetypeTableRecord
  2
CONTINUOUS
 70
     0
  3
--------------------
 72
    65
 73
     0
 40
0.0
  0
LTYPE
  5
2A
330
5
100
AcDbSymbolTableRecord
100
AcDbLinetypeTableRecord
  2
DASHED
 70
     0
  3
- - - - - - - - - - -
 72
    65
 73
     2
 40
19.1
 49
12.7
 74
     0
 49
-6.4
 74
     0
  0
LTYPE
  5
2B
330
5
100
AcDbSymbolTableRecord
100
AcDbLinetypeTableRecord
  2
CENTER
 70
     0
  3
- ･ - ･ - ･ - ･ - ･ - ･ - ･ - ･ - ･ - ･ -
 72
    65
 73
     4
 40
51.0
 49
31.8
 74
     0
 49
-6.4
 74
     0
 49
6.4
 74
     0
 49
-6.4
 74
     0
  0
LTYPE
  5
2C
330
5
100
AcDbSymbolTableRecord
100
AcDbLinetypeTableRecord
  2
PHANTOM
 70
     0
  3
- ･ ･ - ･ ･ - ･ ･ - ･ ･ - ･ ･ - ･ ･ - ･ ･ - 
 72
    65
 73
     6
 40
63.8
 49
31.8
 74
     0
 49
-6.4
 74
     0
 49
6.4
 74
     0
 49
-6.4
 74
     0
 49
6.4
 74
     0
 49
-6.4
 74
     0
  0
LTYPE
  5
2D
330
5
100
AcDbSymbolTableRecord
100
AcDbLinetypeTableRecord
  2
DOT
 70
     0
  3
・・・・・・・・・・・・・・・
 72
    65
 73
     2
 40
6.5
 49
0.1
 74
     0
 49
-6.4
 74
     0
  0
ENDTAB
  0
TABLE
  2
LAYER
  5
2
330
0
100
AcDbSymbolTable
 70
    16
  0
LAYER
  5
10
330
2
100
AcDbSymbolTableRecord
100
AcDbLayerTableRecord
  2
0
 70
     0
 62
     7
  6
CONTINUOUS
  0
LAYER
  5
2E
330
2
100
AcDbSymbolTableRecord
100
AcDbLayerTableRecord
  2
CSLAYER2
 70
     0
 62
     7
  6
CONTINUOUS
  0
ENDTAB
  0
TABLE
  2
STYLE
  5
3
330
0
100
AcDbSymbolTable
 70
     2
  0
STYLE
  5
11
330
3
100
AcDbSymbolTableRecord
100
AcDbTextStyleTableRecord
  2
STANDARD
 70
     0
 40
0.0
 41
1.0
 50
0.0
 71
     0
 42
0.2
  3
txt
  4

  0
STYLE
  5
3D
330
3
100
AcDbSymbolTableRecord
100
AcDbTextStyleTableRecord
  2
ED_VECTOR
 70
     0
 40
0.0
 41
1.0
 50
0.0
 71
     0
 42
0.2
  3
MONOTXT.SHX
  4
BIGFONT.SHX
  0
ENDTAB
  0
TABLE
  2
VIEW
  5
6
330
0
100
AcDbSymbolTable
 70
     0
  0
ENDTAB
  0
TABLE
  2
UCS
  5
7
330
0
100
AcDbSymbolTable
 70
     0
  0
ENDTAB
  0
TABLE
  2
APPID
  5
9
330
0
100
AcDbSymbolTable
 70
     1
  0
APPID
  5
12
330
9
100
AcDbSymbolTableRecord
100
AcDbRegAppTableRecord
  2
ACAD
 70
     0
  0
ENDTAB
  0
TABLE
  2
DIMSTYLE
  5
A
330
0
100
AcDbSymbolTable
 70
     2
  0
DIMSTYLE
105
27
330
A
100
AcDbSymbolTableRecord
100
AcDbDimStyleTableRecord
  2
STANDARD
 70
     0
  3

  4

  5

  6

  7

 40
1.0
 41
0.18
 42
0.0625
 43
0.38
 44
0.18
 45
0.0
 46
0.0
 47
0.0
 48
0.0
140
0.18
141
0.09
142
0.0
143
25.4
144
1.0
145
0.0
146
1.0
147
0.09
 71
     0
 72
     0
 73
     1
 74
     1
 75
     0
 76
     0
 77
     0
 78
     0
170
     0
171
     2
172
     0
173
     0
174
     0
175
     0
176
     0
177
     0
178
     0
270
     2
271
     4
272
     4
273
     2
274
     2
340
11
275
     0
280
     0
281
     0
282
     0
283
     1
284
     0
285
     0
286
     0
287
     3
288
     0
  0
DIMSTYLE
105
6E
330
A
100
AcDbSymbolTableRecord
100
AcDbDimStyleTableRecord
  2
EDDIMINFO
 70
     0
  3

  4

  5

  6
EDTIP_ARROW_S
  7
EDTIP_ARROW_E
 40
1.0
 41
3.0
 42
1.0
 43
10.0
 44
1.0
 45
0.0
 46
5.0
 47
0.0
 48
0.0
140
4.0
141
2.5
142
0.0
143
0.03937
144
1.0
145
0.0
146
1.0
147
1.0
 71
     0
 72
     0
 73
     0
 74
     0
 75
     0
 76
     0
 77
     1
 78
     8
170
     0
171
     3
172
     1
173
     1
174
     0
175
     0
176
     7
177
     7
178
     7
179
     2
270
     2
271
     2
272
     2
273
     2
274
     3
340
3D
275
     0
280
     0
281
     0
282
     0
283
     0
284
     8
285
     0
286
     0
287
     3
288
     0
  0
ENDTAB
  0
TABLE
  2
BLOCK_RECORD
  5
1
330
0
100
AcDbSymbolTable
 70
    18
  0
BLOCK_RECORD
  5
1F
330
1
100
AcDbSymbolTableRecord
100
AcDbBlockTableRecord
  2
*MODEL_SPACE
  0
BLOCK_RECORD
  5
1B
330
1
100
AcDbSymbolTableRecord
100
AcDbBlockTableRecord
  2
*PAPER_SPACE
  0
BLOCK_RECORD
  5
3E
330
1
100
AcDbSymbolTableRecord
100
AcDbBlockTableRecord
  2
EDTIP_ARROW_S
  0
BLOCK_RECORD
  5
44
330
1
100
AcDbSymbolTableRecord
100
AcDbBlockTableRecord
  2
EDTIP_ARROW_E
  0
BLOCK_RECORD
  5
4A
330
1
100
AcDbSymbolTableRecord
100
AcDbBlockTableRecord
  2
EDTIP_BLACKDOT_S
  0
BLOCK_RECORD
  5
50
330
1
100
AcDbSymbolTableRecord
100
AcDbBlockTableRecord
  2
EDTIP_BLACKDOT_E
  0
BLOCK_RECORD
  5
56
330
1
100
AcDbSymbolTableRecord
100
AcDbBlockTableRecord
  2
EDTIP_ARCHITECT_S
  0
BLOCK_RECORD
  5
5C
330
1
100
AcDbSymbolTableRecord
100
AcDbBlockTableRecord
  2
EDTIP_ARCHITECT_E
  0
BLOCK_RECORD
  5
62
330
1
100
AcDbSymbolTableRecord
100
AcDbBlockTableRecord
  2
EDTIP_CIVIL_S
  0
BLOCK_RECORD
  5
68
330
1
100
AcDbSymbolTableRecord
100
AcDbBlockTableRecord
  2
EDTIP_CIVIL_E
  0
BLOCK_RECORD
  5
DA
330
1
100
AcDbSymbolTableRecord
100
AcDbBlockTableRecord
  2
BLKF011
  0
BLOCK_RECORD
  5
10D
330
1
100
AcDbSymbolTableRecord
100
AcDbBlockTableRecord
  2
BLKF012
  0
BLOCK_RECORD
  5
250
330
1
100
AcDbSymbolTableRecord
100
AcDbBlockTableRecord
  2
BLKF013
  0
BLOCK_RECORD
  5
266
330
1
100
AcDbSymbolTableRecord
100
AcDbBlockTableRecord
  2
BLKF014
  0
BLOCK_RECORD
  5
279
330
1
100
AcDbSymbolTableRecord
100
AcDbBlockTableRecord
  2
BLKF015
  0
BLOCK_RECORD
  5
317
330
1
100
AcDbSymbolTableRecord
100
AcDbBlockTableRecord
  2
BLKF016
  0
BLOCK_RECORD
  5
324
330
1
100
AcDbSymbolTableRecord
100
AcDbBlockTableRecord
  2
BLKF017
  0
BLOCK_RECORD
  5
3A5
330
1
100
AcDbSymbolTableRecord
100
AcDbBlockTableRecord
  2
BLKF018
  0
BLOCK_RECORD
  5
3B3
330
1
100
AcDbSymbolTableRecord
100
AcDbBlockTableRecord
  2
BLKF019
  0
ENDTAB
  0
ENDSEC
  0
SECTION
  2
BLOCKS
  0
BLOCK
  5
20
330
1F
100
AcDbEntity
  8
0
100
AcDbBlockBegin
  2
*MODEL_SPACE
 70
     0
 71
     0
 10
0.0
 20
0.0
 30
0.0
  3
*MODEL_SPACE
  1

  0
ENDBLK
  5
21
330
1F
100
AcDbEntity
  8
0
100
AcDbBlockEnd
  0
BLOCK
  5
1C
330
1B
100
AcDbEntity
 67
     1
  8
0
100
AcDbBlockBegin
  2
*PAPER_SPACE
 70
     0
 71
     0
 10
0.0
 20
0.0
 30
0.0
  3
*PAPER_SPACE
  1

  0
ENDBLK
  5
1D
330
1B
100
AcDbEntity
 67
     1
  8
0
100
AcDbBlockEnd
  0
BLOCK
  5
3F
330
3E
100
AcDbEntity
  8
0
100
AcDbBlockBegin
  2
EDTIP_ARROW_S
 70
     0
 71
     0
 10
0.0
 20
0.0
 30
0.0
  3
EDTIP_ARROW_S
  1

  0
LINE
  5
41
330
3E
100
AcDbEntity
  8
0
  6
CONTINUOUS
 62
     0
100
AcDbLine
 10
0.0
 20
0.0
 30
0.0
 11
-1.0
 21
0.0
 31
0.0
  0
LINE
  5
42
330
3E
100
AcDbEntity
  8
0
  6
CONTINUOUS
 62
     0
100
AcDbLine
 10
0.0
 20
0.0
 30
0.0
 11
-0.965926
 21
0.258819
 31
0.0
  0
LINE
  5
43
330
3E
100
AcDbEntity
  8
0
  6
CONTINUOUS
 62
     0
100
AcDbLine
 10
0.0
 20
0.0
 30
0.0
 11
-0.965926
 21
-0.258819
 31
0.0
  0
ENDBLK
  5
40
330
3E
100
AcDbEntity
  8
0
100
AcDbBlockEnd
  0
BLOCK
  5
45
330
44
100
AcDbEntity
  8
0
100
AcDbBlockBegin
  2
EDTIP_ARROW_E
 70
     0
 71
     0
 10
0.0
 20
0.0
 30
0.0
  3
EDTIP_ARROW_E
  1

  0
LINE
  5
47
330
44
100
AcDbEntity
  8
0
  6
CONTINUOUS
 62
     0
100
AcDbLine
 10
0.0
 20
0.0
 30
0.0
 11
-1.0
 21
0.0
 31
0.0
  0
LINE
  5
48
330
44
100
AcDbEntity
  8
0
  6
CONTINUOUS
 62
     0
100
AcDbLine
 10
0.0
 20
0.0
 30
0.0
 11
-0.965926
 21
-0.258819
 31
0.0
  0
LINE
  5
49
330
44
100
AcDbEntity
  8
0
  6
CONTINUOUS
 62
     0
100
AcDbLine
 10
0.0
 20
0.0
 30
0.0
 11
-0.965926
 21
0.258819
 31
0.0
  0
ENDBLK
  5
46
330
44
100
AcDbEntity
  8
0
100
AcDbBlockEnd
  0
BLOCK
  5
4B
330
4A
100
AcDbEntity
  8
0
100
AcDbBlockBegin
  2
EDTIP_BLACKDOT_S
 70
     0
 71
     0
 10
0.0
 20
0.0
 30
0.0
  3
EDTIP_BLACKDOT_S
  1

  0
LINE
  5
4D
330
4A
100
AcDbEntity
  8
0
  6
CONTINUOUS
 62
     0
100
AcDbLine
 10
0.0
 20
0.0
 30
0.0
 11
-1.0
 21
0.0
 31
0.0
  0
CIRCLE
  5
4E
330
4A
100
AcDbEntity
  8
0
  6
CONTINUOUS
 62
     0
100
AcDbCircle
 10
0.0
 20
0.0
 30
0.0
 40
0.5
  0
CIRCLE
  5
4F
330
4A
100
AcDbEntity
  8
0
  6
CONTINUOUS
 62
     0
100
AcDbCircle
 10
0.0
 20
0.0
 30
0.0
 40
0.25
  0
ENDBLK
  5
4C
330
4A
100
AcDbEntity
  8
0
100
AcDbBlockEnd
  0
BLOCK
  5
51
330
50
100
AcDbEntity
  8
0
100
AcDbBlockBegin
  2
EDTIP_BLACKDOT_E
 70
     0
 71
     0
 10
0.0
 20
0.0
 30
0.0
  3
EDTIP_BLACKDOT_E
  1

  0
LINE
  5
53
330
50
100
AcDbEntity
  8
0
  6
CONTINUOUS
 62
     0
100
AcDbLine
 10
0.0
 20
0.0
 30
0.0
 11
-1.0
 21
0.0
 31
0.0
  0
CIRCLE
  5
54
330
50
100
AcDbEntity
  8
0
  6
CONTINUOUS
 62
     0
100
AcDbCircle
 10
0.0
 20
0.0
 30
0.0
 40
0.5
  0
CIRCLE
  5
55
330
50
100
AcDbEntity
  8
0
  6
CONTINUOUS
 62
     0
100
AcDbCircle
 10
0.0
 20
0.0
 30
0.0
 40
0.25
  0
ENDBLK
  5
52
330
50
100
AcDbEntity
  8
0
100
AcDbBlockEnd
  0
BLOCK
  5
57
330
56
100
AcDbEntity
  8
0
100
AcDbBlockBegin
  2
EDTIP_ARCHITECT_S
 70
     0
 71
     0
 10
0.0
 20
0.0
 30
0.0
  3
EDTIP_ARCHITECT_S
  1

  0
LINE
  5
59
330
56
100
AcDbEntity
  8
0
  6
CONTINUOUS
 62
     0
100
AcDbLine
 10
0.0
 20
0.0
 30
0.0
 11
-1.0
 21
0.0
 31
0.0
  0
LINE
  5
5A
330
56
100
AcDbEntity
  8
0
  6
CONTINUOUS
 62
     0
100
AcDbLine
 10
0.0
 20
0.0
 30
0.0
 11
-0.707107
 21
-0.707107
 31
0.0
  0
LINE
  5
5B
330
56
100
AcDbEntity
  8
0
  6
CONTINUOUS
 62
     0
100
AcDbLine
 10
0.0
 20
0.0
 30
0.0
 11
0.707107
 21
0.707107
 31
0.0
  0
ENDBLK
  5
58
330
56
100
AcDbEntity
  8
0
100
AcDbBlockEnd
  0
BLOCK
  5
5D
330
5C
100
AcDbEntity
  8
0
100
AcDbBlockBegin
  2
EDTIP_ARCHITECT_E
 70
     0
 71
     0
 10
0.0
 20
0.0
 30
0.0
  3
EDTIP_ARCHITECT_E
  1

  0
LINE
  5
5F
330
5C
100
AcDbEntity
  8
0
  6
CONTINUOUS
 62
     0
100
AcDbLine
 10
0.0
 20
0.0
 30
0.0
 11
-1.0
 21
0.0
 31
0.0
  0
LINE
  5
60
330
5C
100
AcDbEntity
  8
0
  6
CONTINUOUS
 62
     0
100
AcDbLine
 10
0.0
 20
0.0
 30
0.0
 11
-0.707107
 21
-0.707107
 31
0.0
  0
LINE
  5
61
330
5C
100
AcDbEntity
  8
0
  6
CONTINUOUS
 62
     0
100
AcDbLine
 10
0.0
 20
0.0
 30
0.0
 11
0.707107
 21
0.707107
 31
0.0
  0
ENDBLK
  5
5E
330
5C
100
AcDbEntity
  8
0
100
AcDbBlockEnd
  0
BLOCK
  5
63
330
62
100
AcDbEntity
  8
0
100
AcDbBlockBegin
  2
EDTIP_CIVIL_S
 70
     0
 71
     0
 10
0.0
 20
0.0
 30
0.0
  3
EDTIP_CIVIL_S
  1

  0
LINE
  5
65
330
62
100
AcDbEntity
  8
0
  6
CONTINUOUS
 62
     0
100
AcDbLine
 10
0.0
 20
0.0
 30
0.0
 11
-1.0
 21
0.0
 31
0.0
  0
LINE
  5
66
330
62
100
AcDbEntity
  8
0
  6
CONTINUOUS
 62
     0
100
AcDbLine
 10
0.0
 20
-0.083333
 30
0.0
 11
-1.0
 21
-0.083333
 31
0.0
  0
LINE
  5
67
330
62
100
AcDbEntity
  8
0
  6
CONTINUOUS
 62
     0
100
AcDbLine
 10
0.0
 20
-0.166667
 30
0.0
 11
-1.0
 21
-0.166667
 31
0.0
  0
ENDBLK
  5
64
330
62
100
AcDbEntity
  8
0
100
AcDbBlockEnd
  0
BLOCK
  5
69
330
68
100
AcDbEntity
  8
0
100
AcDbBlockBegin
  2
EDTIP_CIVIL_E
 70
     0
 71
     0
 10
0.0
 20
0.0
 30
0.0
  3
EDTIP_CIVIL_E
  1

  0
LINE
  5
6B
330
68
100
AcDbEntity
  8
0
  6
CONTINUOUS
 62
     0
100
AcDbLine
 10
0.0
 20
0.0
 30
0.0
 11
-1.0
 21
0.0
 31
0.0
  0
LINE
  5
6C
330
68
100
AcDbEntity
  8
0
  6
CONTINUOUS
 62
     0
100
AcDbLine
 10
0.0
 20
0.083333
 30
0.0
 11
-1.0
 21
0.083333
 31
0.0
  0
LINE
  5
6D
330
68
100
AcDbEntity
  8
0
  6
CONTINUOUS
 62
     0
100
AcDbLine
 10
0.0
 20
0.166667
 30
0.0
 11
-1.0
 21
0.166667
 31
0.0
  0
ENDBLK
  5
6A
330
68
100
AcDbEntity
  8
0
100
AcDbBlockEnd
  0
BLOCK
  5
DB
330
DA
100
AcDbEntity
  8
0
100
AcDbBlockBegin
  2
BLKF011
 70
     0
 71
     0
 10
0.0
 20
0.0
 30
0.0
  3
BLKF011
  1

  0
LINE
  5
DE
330
DA
100
AcDbEntity
  8
0
  6
CONTINUOUS
 62
     7
100
AcDbLine
 10
123.521503
 20
45.114496
 30
0.0
 11
123.480768
 21
45.114708
 31
0.0
  0
LINE
  5
DF
330
DA
100
AcDbEntity
  8
0
  6
CONTINUOUS
 62
     7
100
AcDbLine
 10
123.480768
 20
45.114708
 30
0.0
 11
123.460434
 21
45.114831
 31
0.0
  0
LINE
  5
E0
330
DA
100
AcDbEntity
  8
0
  6
CONTINUOUS
 62
     7
100
AcDbLine
 10
123.460434
 20
45.114831
 30
0.0
 11
123.440138
 21
45.114976
 31
0.0
  0
LINE
  5
E1
330
DA
100
AcDbEntity
  8
0
  6
CONTINUOUS
 62
     7
100
AcDbLine
 10
123.440138
 20
45.114976
 30
0.0
 11
123.419894
 21
45.115149
 31
0.0
  0
LINE
  5
E2
330
DA
100
AcDbEntity
  8
0
  6
CONTINUOUS
 62
     7
100
AcDbLine
 10
123.419894
 20
45.115149
 30
0.0
 11
123.399715
 21
45.115357
 31
0.0
  0
LINE
  5
E3
330
DA
100
AcDbEntity
  8
0
  6
CONTINUOUS
 62
     7
100
AcDbLine
 10
123.399715
 20
45.115357
 30
0.0
 11
123.379613
 21
45.115608
 31
0.0
  0
LINE
  5
E4
330
DA
100
AcDbEntity
  8
0
  6
CONTINUOUS
 62
     7
100
AcDbLine
 10
123.379613
 20
45.115608
 30
0.0
 11
123.359602
 21
45.115908
 31
0.0
  0
LINE
  5
E5
330
DA
100
AcDbEntity
  8
0
  6
CONTINUOUS
 62
     7
100
AcDbLine
 10
123.359602
 20
45.115908
 30
0.0
 11
123.340191
 21
45.116253
 31
0.0
  0
LINE
  5
E6
330
DA
100
AcDbEntity
  8
0
  6
CONTINUOUS
 62
     7
100
AcDbLine
 10
123.340191
 20
45.116253
 30
0.0
 11
123.320892
 21
45.11665
 31
0.0
  0
LINE
  5
E7
330
DA
100
AcDbEntity
  8
0
  6
CONTINUOUS
 62
     7
100
AcDbLine
 10
123.320892
 20
45.11665
 30
0.0
 11
123.301721
 21
45.117094
 31
0.0
  0
LINE
  5
E8
330
DA
100
AcDbEntity
  8
0
  6
CONTINUOUS
 62
     7
100
AcDbLine
 10
123.301721
 20
45.117094
 30
0.0
 11
123.28269
 21
45.117584
 31
0.0
  0
LINE
  5
E9
330
DA
100
AcDbEntity
  8
0
  6
CONTINUOUS
 62
     7
100
AcDbLine
 10
123.28269
 20
45.117584
 30
0.0
 11
123.263815
 21
45.118117
 31
0.0
  0
LINE
  5
EA
330
DA
100
AcDbEntity
  8
0
  6
CONTINUOUS
 62
     7
100
AcDbLine
 10
123.263815
 20
45.118117
 30
0.0
 11
123.245108
 21
45.118689
 31
0.0
  0
LINE
  5
EB
330
DA
100
AcDbEntity
  8
0
  6
CONTINUOUS
 62
     7
100
AcDbLine
 10
123.245108
 20
45.118689
 30
0.0
 11
123.226586
 21
45.119299
 31
0.0
  0
LINE
  5
EC
330
DA
100
AcDbEntity
  8
0
  6
CONTINUOUS
 62
     7
100
AcDbLine
 10
123.226586
 20
45.119299
 30
0.0
 11
123.20826
 21
45.119943
 31
0.0
  0
LINE
  5
ED
330
DA
100
AcDbEntity
  8
0
  6
CONTINUOUS
 62
     7
100
AcDbLine
 10
123.20826
 20
45.119943
 30
0.0
 11
123.18938
 21
45.120648
 31
0.0
  0
LINE
  5
EE
330
DA
100
AcDbEntity
  8
0
  6
CONTINUOUS
 62
     7
100
AcDbLine
 10
123.18938
 20
45.120648
 30
0.0
 11
123.170735
 21
45.121385
 31
0.0
  0
LINE
  5
EF
330
DA
100
AcDbEntity
  8
0
  6
CONTINUOUS
 62
     7
100
AcDbLine
 10
123.170735
 20
45.121385
 30
0.0
 11
123.15233
 21
45.122152
 31
0.0
  0
LINE
  5
F0
330
DA
100
AcDbEntity
  8
0
  6
CONTINUOUS
 62
     7
100
AcDbLine
 10
123.15233
 20
45.122152
 30
0.0
 11
123.134171
 21
45.122945
 31
0.0
  0
LINE
  5
F1
330
DA
100
AcDbEntity
  8
0
  6
CONTINUOUS
 62
     7
100
AcDbLine
 10
123.134171
 20
45.122945
 30
0.0
 11
123.116262
 21
45.123763
 31
0.0
  0
LINE
  5
F2
330
DA
100
AcDbEntity
  8
0
  6
CONTINUOUS
 62
     7
100
AcDbLine
 10
123.116262
 20
45.123763
 30
0.0
 11
123.098609
 21
45.124603
 31
0.0
  0
LINE
  5
F3
330
DA
100
AcDbEntity
  8
0
  6
CONTINUOUS
 62
     7
100
AcDbLine
 10
123.098609
 20
45.124603
 30
0.0
 11
123.081217
 21
45.125462
 31
0.0
  0
LINE
  5
F4
330
DA
100
AcDbEntity
  8
0
  6
CONTINUOUS
 62
     7
100
AcDbLine
 10
123.081217
 20
45.125462
 30
0.0
 11
123.06409
 21
45.126339
 31
0.0
  0
LINE
  5
F5
330
DA
100
AcDbEntity
  8
0
  6
CONTINUOUS
 62
     7
100
AcDbLine
 10
123.06409
 20
45.126339
 30
0.0
 11
123.047234
 21
45.12723
 31
0.0
  0
LINE
  5
F6
330
DA
100
AcDbEntity
  8
0
  6
CONTINUOUS
 62
     7
100
AcDbLine
 10
123.047234
 20
45.12723
 30
0.0
 11
123.030654
 21
45.128134
 31
0.0
  0
LINE
  5
F7
330
DA
100
AcDbEntity
  8
0
  6
CONTINUOUS
 62
     7
100
AcDbLine
 10
123.030654
 20
45.128134
 30
0.0
 11
123.014356
 21
45.129047
 31
0.0
  0
LINE
  5
F8
330
DA
100
AcDbEntity
  8
0
  6
CONTINUOUS
 62
     7
100
AcDbLine
 10
123.014356
 20
45.129047
 30
0.0
 11
122.998343
 21
45.129968
 31
0.0
  0
LINE
  5
F9
330
DA
100
AcDbEntity
  8
0
  6
CONTINUOUS
 62
     7
100
AcDbLine
 10
122.998343
 20
45.129968
 30
0.0
 11
122.982621
 21
45.130893
 31
0.0
  0
LINE
  5
FA
330
DA
100
AcDbEntity
  8
0
  6
CONTINUOUS
 62
     7
100
AcDbLine
 10
122.982621
 20
45.130893
 30
0.0
 11
122.967196
 21
45.131821
 31
0.0
  0
LINE
  5
FB
330
DA
100
AcDbEntity
  8
0
  6
CONTINUOUS
 62
     7
100
AcDbLine
 10
122.967196
 20
45.131821
 30
0.0
 11
122.952071
 21
45.132749
 31
0.0
  0
LINE
  5
FC
330
DA
100
AcDbEntity
  8
0
  6
CONTINUOUS
 62
     7
100
AcDbLine
 10
122.952071
 20
45.132749
 30
0.0
 11
122.937254
 21
45.133674
 31
0.0
  0
LINE
  5
FD
330
DA
100
AcDbEntity
  8
0
  6
CONTINUOUS
 62
     7
100
AcDbLine
 10
122.937254
 20
45.133674
 30
0.0
 11
122.922707
 21
45.134597
 31
0.0
  0
LINE
  5
FE
330
DA
100
AcDbEntity
  8
0
  6
CONTINUOUS
 62
     7
100
AcDbLine
 10
122.922707
 20
45.134597
 30
0.0
 11
122.908486
 21
45.135514
 31
0.0
  0
LINE
  5
FF
330
DA
100
AcDbEntity
  8
0
  6
CONTINUOUS
 62
     7
100
AcDbLine
 10
122.908486
 20
45.135514
 30
0.0
 11
122.894601
 21
45.136422
 31
0.0
  0
LINE
  5
100
330
DA
100
AcDbEntity
  8
0
  6
CONTINUOUS
 62
     7
100
AcDbLine
 10
122.894601
 20
45.136422
 30
0.0
 11
122.881064
 21
45.137321
 31
0.0
  0
LINE
  5
101
330
DA
100
AcDbEntity
  8
0
  6
CONTINUOUS
 62
     7
100
AcDbLine
 10
122.881064
 20
45.137321
 30
0.0
 11
122.855082
 21
45.139084
 31
0.0
  0
LINE
  5
102
330
DA
100
AcDbEntity
  8
0
  6
CONTINUOUS
 62
     7
100
AcDbLine
 10
122.855082
 20
45.139084
 30
0.0
 11
122.830631
 21
45.14079
 31
0.0
  0
LINE
  5
103
330
DA
100
AcDbEntity
  8
0
  6
CONTINUOUS
 62
     7
100
AcDbLine
 10
122.830631
 20
45.14079
 30
0.0
 11
122.807805
 21
45.142427
 31
0.0
  0
LINE
  5
104
330
DA
100
AcDbEntity
  8
0
  6
CONTINUOUS
 62
     7
100
AcDbLine
 10
122.807805
 20
45.142427
 30
0.0
 11
122.786697
 21
45.143983
 31
0.0
  0
LINE
  5
105
330
DA
100
AcDbEntity
  8
0
  6
CONTINUOUS
 62
     7
100
AcDbLine
 10
122.786697
 20
45.143983
 30
0.0
 11
122.7674
 21
45.145446
 31
0.0
  0
LINE
  5
106
330
DA
100
AcDbEntity
  8
0
  6
CONTINUOUS
 62
     7
100
AcDbLine
 10
122.7674
 20
45.145446
 30
0.0
 11
122.750006
 21
45.146802
 31
0.0
  0
LINE
  5
107
330
DA
100
AcDbEntity
  8
0
  6
CONTINUOUS
 62
     7
100
AcDbLine
 10
122.750006
 20
45.146802
 30
0.0
 11
122.735132
 21
45.147997
 31
0.0
  0
LINE
  5
108
330
DA
100
AcDbEntity
  8
0
  6
CONTINUOUS
 62
     7
100
AcDbLine
 10
122.735132
 20
45.147997
 30
0.0
 11
122.722268
 21
45.149059
 31
0.0
  0
LINE
  5
109
330
DA
100
AcDbEntity
  8
0
  6
CONTINUOUS
 62
     7
100
AcDbLine
 10
122.722268
 20
45.149059
 30
0.0
 11
122.703178
 21
45.150686
 31
0.0
  0
LINE
  5
10A
330
DA
100
AcDbEntity
  8
0
  6
CONTINUOUS
 62
     7
100
AcDbLine
 10
122.703178
 20
45.150686
 30
0.0
 11
122.69277
 21
45.151608
 31
0.0
  0
LINE
  5
10B
330
DA
100
AcDbEntity
  8
0
  6
CONTINUOUS
 62
     7
100
AcDbLine
 10
122.69277
 20
45.151608
 30
0.0
 11
122.687563
 21
45.152099
 31
0.0
  0
ENDBLK
  5
DC
330
DA
100
AcDbEntity
  8
0
100
AcDbBlockEnd
  0
BLOCK
  5
10E
330
10D
100
AcDbEntity
  8
0
100
AcDbBlockBegin
  2
BLKF012
 70
     0
 71
     0
 10
0.0
 20
0.0
 30
0.0
  3
BLKF012
  1

  0
LINE
  5
111
330
10D
100
AcDbEntity
  8
0
  6
CONTINUOUS
 62
     7
100
AcDbLine
 10
124.355417
 20
45.152097
 30
0.0
 11
124.355457
 21
45.1521
 31
0.0
  0
LINE
  5
112
330
10D
100
AcDbEntity
  8
0
  6
CONTINUOUS
 62
     7
100
AcDbLine
 10
124.355457
 20
45.1521
 30
0.0
 11
124.356756
 21
45.152217
 31
0.0
  0
LINE
  5
113
330
10D
100
AcDbEntity
  8
0
  6
CONTINUOUS
 62
     7
100
AcDbLine
 10
124.356756
 20
45.152217
 30
0.0
 11
124.356877
 21
45.152224
 31
0.0
  0
LINE
  5
114
330
10D
100
AcDbEntity
  8
0
  6
CONTINUOUS
 62
     7
100
AcDbLine
 10
124.356877
 20
45.152224
 30
0.0
 11
124.355944
 21
45.152136
 31
0.0
  0
LINE
  5
115
330
10D
100
AcDbEntity
  8
0
  6
CONTINUOUS
 62
     7
100
AcDbLine
 10
124.355944
 20
45.152136
 30
0.0
 11
124.354081
 21
45.151963
 31
0.0
  0
LINE
  5
116
330
10D
100
AcDbEntity
  8
0
  6
CONTINUOUS
 62
     7
100
AcDbLine
 10
124.354081
 20
45.151963
 30
0.0
 11
124.352841
 21
45.151849
 31
0.0
  0
LINE
  5
117
330
10D
100
AcDbEntity
  8
0
  6
CONTINUOUS
 62
     7
100
AcDbLine
 10
124.352841
 20
45.151849
 30
0.0
 11
124.351415
 21
45.151718
 31
0.0
  0
LINE
  5
118
330
10D
100
AcDbEntity
  8
0
  6
CONTINUOUS
 62
     7
100
AcDbLine
 10
124.351415
 20
45.151718
 30
0.0
 11
124.349818
 21
45.151573
 31
0.0
  0
LINE
  5
119
330
10D
100
AcDbEntity
  8
0
  6
CONTINUOUS
 62
     7
100
AcDbLine
 10
124.349818
 20
45.151573
 30
0.0
 11
124.348068
 21
45.151415
 31
0.0
  0
LINE
  5
11A
330
10D
100
AcDbEntity
  8
0
  6
CONTINUOUS
 62
     7
100
AcDbLine
 10
124.348068
 20
45.151415
 30
0.0
 11
124.346179
 21
45.151245
 31
0.0
  0
LINE
  5
11B
330
10D
100
AcDbEntity
  8
0
  6
CONTINUOUS
 62
     7
100
AcDbLine
 10
124.346179
 20
45.151245
 30
0.0
 11
124.344166
 21
45.151065
 31
0.0
  0
LINE
  5
11C
330
10D
100
AcDbEntity
  8
0
  6
CONTINUOUS
 62
     7
100
AcDbLine
 10
124.344166
 20
45.151065
 30
0.0
 11
124.342046
 21
45.150876
 31
0.0
  0
LINE
  5
11D
330
10D
100
AcDbEntity
  8
0
  6
CONTINUOUS
 62
     7
100
AcDbLine
 10
124.342046
 20
45.150876
 30
0.0
 11
124.339834
 21
45.150681
 31
0.0
  0
LINE
  5
11E
330
10D
100
AcDbEntity
  8
0
  6
CONTINUOUS
 62
     7
100
AcDbLine
 10
124.339834
 20
45.150681
 30
0.0
 11
124.337603
 21
45.150485
 31
0.0
  0
LINE
  5
11F
330
10D
100
AcDbEntity
  8
0
  6
CONTINUOUS
 62
     7
100
AcDbLine
 10
124.337603
 20
45.150485
 30
0.0
 11
124.335296
 21
45.150283
 31
0.0
  0
LINE
  5
120
330
10D
100
AcDbEntity
  8
0
  6
CONTINUOUS
 62
     7
100
AcDbLine
 10
124.335296
 20
45.150283
 30
0.0
 11
124.33291
 21
45.150076
 31
0.0
  0
LINE
  5
121
330
10D
100
AcDbEntity
  8
0
  6
CONTINUOUS
 62
     7
100
AcDbLine
 10
124.33291
 20
45.150076
 30
0.0
 11
124.33044
 21
45.149864
 31
0.0
  0
LINE
  5
122
330
10D
100
AcDbEntity
  8
0
  6
CONTINUOUS
 62
     7
100
AcDbLine
 10
124.33044
 20
45.149864
 30
0.0
 11
124.327883
 21
45.149645
 31
0.0
  0
LINE
  5
123
330
10D
100
AcDbEntity
  8
0
  6
CONTINUOUS
 62
     7
100
AcDbLine
 10
124.327883
 20
45.149645
 30
0.0
 11
124.325235
 21
45.14942
 31
0.0
  0
LINE
  5
124
330
10D
100
AcDbEntity
  8
0
  6
CONTINUOUS
 62
     7
100
AcDbLine
 10
124.325235
 20
45.14942
 30
0.0
 11
124.322493
 21
45.149189
 31
0.0
  0
LINE
  5
125
330
10D
100
AcDbEntity
  8
0
  6
CONTINUOUS
 62
     7
100
AcDbLine
 10
124.322493
 20
45.149189
 30
0.0
 11
124.319654
 21
45.148952
 31
0.0
  0
LINE
  5
126
330
10D
100
AcDbEntity
  8
0
  6
CONTINUOUS
 62
     7
100
AcDbLine
 10
124.319654
 20
45.148952
 30
0.0
 11
124.316713
 21
45.148708
 31
0.0
  0
LINE
  5
127
330
10D
100
AcDbEntity
  8
0
  6
CONTINUOUS
 62
     7
100
AcDbLine
 10
124.316713
 20
45.148708
 30
0.0
 11
124.313667
 21
45.148457
 31
0.0
  0
LINE
  5
128
330
10D
100
AcDbEntity
  8
0
  6
CONTINUOUS
 62
     7
100
AcDbLine
 10
124.313667
 20
45.148457
 30
0.0
 11
124.310513
 21
45.148199
 31
0.0
  0
LINE
  5
129
330
10D
100
AcDbEntity
  8
0
  6
CONTINUOUS
 62
     7
100
AcDbLine
 10
124.310513
 20
45.148199
 30
0.0
 11
124.307246
 21
45.147934
 31
0.0
  0
LINE
  5
12A
330
10D
100
AcDbEntity
  8
0
  6
CONTINUOUS
 62
     7
100
AcDbLine
 10
124.307246
 20
45.147934
 30
0.0
 11
124.305569
 21
45.147798
 31
0.0
  0
LINE
  5
12B
330
10D
100
AcDbEntity
  8
0
  6
CONTINUOUS
 62
     7
100
AcDbLine
 10
124.305569
 20
45.147798
 30
0.0
 11
124.303863
 21
45.147661
 31
0.0
  0
LINE
  5
12C
330
10D
100
AcDbEntity
  8
0
  6
CONTINUOUS
 62
     7
100
AcDbLine
 10
124.303863
 20
45.147661
 30
0.0
 11
124.302127
 21
45.147522
 31
0.0
  0
LINE
  5
12D
330
10D
100
AcDbEntity
  8
0
  6
CONTINUOUS
 62
     7
100
AcDbLine
 10
124.302127
 20
45.147522
 30
0.0
 11
124.300361
 21
45.14738
 31
0.0
  0
LINE
  5
12E
330
10D
100
AcDbEntity
  8
0
  6
CONTINUOUS
 62
     7
100
AcDbLine
 10
124.300361
 20
45.14738
 30
0.0
 11
124.298564
 21
45.147237
 31
0.0
  0
LINE
  5
12F
330
10D
100
AcDbEntity
  8
0
  6
CONTINUOUS
 62
     7
100
AcDbLine
 10
124.298564
 20
45.147237
 30
0.0
 11
124.296736
 21
45.147092
 31
0.0
  0
LINE
  5
130
330
10D
100
AcDbEntity
  8
0
  6
CONTINUOUS
 62
     7
100
AcDbLine
 10
124.296736
 20
45.147092
 30
0.0
 11
124.294876
 21
45.146945
 31
0.0
  0
LINE
  5
131
330
10D
100
AcDbEntity
  8
0
  6
CONTINUOUS
 62
     7
100
AcDbLine
 10
124.294876
 20
45.146945
 30
0.0
 11
124.292984
 21
45.146796
 31
0.0
  0
LINE
  5
132
330
10D
100
AcDbEntity
  8
0
  6
CONTINUOUS
 62
     7
100
AcDbLine
 10
124.292984
 20
45.146796
 30
0.0
 11
124.290985
 21
45.146639
 31
0.0
  0
LINE
  5
133
330
10D
100
AcDbEntity
  8
0
  6
CONTINUOUS
 62
     7
100
AcDbLine
 10
124.290985
 20
45.146639
 30
0.0
 11
124.288951
 21
45.14648
 31
0.0
  0
LINE
  5
134
330
10D
100
AcDbEntity
  8
0
  6
CONTINUOUS
 62
     7
100
AcDbLine
 10
124.288951
 20
45.14648
 30
0.0
 11
124.286883
 21
45.146318
 31
0.0
  0
LINE
  5
135
330
10D
100
AcDbEntity
  8
0
  6
CONTINUOUS
 62
     7
100
AcDbLine
 10
124.286883
 20
45.146318
 30
0.0
 11
124.28478
 21
45.146155
 31
0.0
  0
LINE
  5
136
330
10D
100
AcDbEntity
  8
0
  6
CONTINUOUS
 62
     7
100
AcDbLine
 10
124.28478
 20
45.146155
 30
0.0
 11
124.282644
 21
45.145989
 31
0.0
  0
LINE
  5
137
330
10D
100
AcDbEntity
  8
0
  6
CONTINUOUS
 62
     7
100
AcDbLine
 10
124.282644
 20
45.145989
 30
0.0
 11
124.280473
 21
45.145822
 31
0.0
  0
LINE
  5
138
330
10D
100
AcDbEntity
  8
0
  6
CONTINUOUS
 62
     7
100
AcDbLine
 10
124.280473
 20
45.145822
 30
0.0
 11
124.278269
 21
45.145652
 31
0.0
  0
LINE
  5
139
330
10D
100
AcDbEntity
  8
0
  6
CONTINUOUS
 62
     7
100
AcDbLine
 10
124.278269
 20
45.145652
 30
0.0
 11
124.276031
 21
45.14548
 31
0.0
  0
LINE
  5
13A
330
10D
100
AcDbEntity
  8
0
  6
CONTINUOUS
 62
     7
100
AcDbLine
 10
124.276031
 20
45.14548
 30
0.0
 11
124.273761
 21
45.145307
 31
0.0
  0
LINE
  5
13B
330
10D
100
AcDbEntity
  8
0
  6
CONTINUOUS
 62
     7
100
AcDbLine
 10
124.273761
 20
45.145307
 30
0.0
 11
124.271458
 21
45.145131
 31
0.0
  0
LINE
  5
13C
330
10D
100
AcDbEntity
  8
0
  6
CONTINUOUS
 62
     7
100
AcDbLine
 10
124.271458
 20
45.145131
 30
0.0
 11
124.269122
 21
45.144954
 31
0.0
  0
LINE
  5
13D
330
10D
100
AcDbEntity
  8
0
  6
CONTINUOUS
 62
     7
100
AcDbLine
 10
124.269122
 20
45.144954
 30
0.0
 11
124.266754
 21
45.144775
 31
0.0
  0
LINE
  5
13E
330
10D
100
AcDbEntity
  8
0
  6
CONTINUOUS
 62
     7
100
AcDbLine
 10
124.266754
 20
45.144775
 30
0.0
 11
124.264354
 21
45.144593
 31
0.0
  0
LINE
  5
13F
330
10D
100
AcDbEntity
  8
0
  6
CONTINUOUS
 62
     7
100
AcDbLine
 10
124.264354
 20
45.144593
 30
0.0
 11
124.261922
 21
45.144411
 31
0.0
  0
LINE
  5
140
330
10D
100
AcDbEntity
  8
0
  6
CONTINUOUS
 62
     7
100
AcDbLine
 10
124.261922
 20
45.144411
 30
0.0
 11
124.259458
 21
45.144226
 31
0.0
  0
LINE
  5
141
330
10D
100
AcDbEntity
  8
0
  6
CONTINUOUS
 62
     7
100
AcDbLine
 10
124.259458
 20
45.144226
 30
0.0
 11
124.256964
 21
45.144039
 31
0.0
  0
LINE
  5
142
330
10D
100
AcDbEntity
  8
0
  6
CONTINUOUS
 62
     7
100
AcDbLine
 10
124.256964
 20
45.144039
 30
0.0
 11
124.254438
 21
45.143851
 31
0.0
  0
LINE
  5
143
330
10D
100
AcDbEntity
  8
0
  6
CONTINUOUS
 62
     7
100
AcDbLine
 10
124.254438
 20
45.143851
 30
0.0
 11
124.251882
 21
45.143661
 31
0.0
  0
LINE
  5
144
330
10D
100
AcDbEntity
  8
0
  6
CONTINUOUS
 62
     7
100
AcDbLine
 10
124.251882
 20
45.143661
 30
0.0
 11
124.249295
 21
45.14347
 31
0.0
  0
LINE
  5
145
330
10D
100
AcDbEntity
  8
0
  6
CONTINUOUS
 62
     7
100
AcDbLine
 10
124.249295
 20
45.14347
 30
0.0
 11
124.246679
 21
45.143277
 31
0.0
  0
LINE
  5
146
330
10D
100
AcDbEntity
  8
0
  6
CONTINUOUS
 62
     7
100
AcDbLine
 10
124.246679
 20
45.143277
 30
0.0
 11
124.244032
 21
45.143082
 31
0.0
  0
LINE
  5
147
330
10D
100
AcDbEntity
  8
0
  6
CONTINUOUS
 62
     7
100
AcDbLine
 10
124.244032
 20
45.143082
 30
0.0
 11
124.241355
 21
45.142886
 31
0.0
  0
LINE
  5
148
330
10D
100
AcDbEntity
  8
0
  6
CONTINUOUS
 62
     7
100
AcDbLine
 10
124.241355
 20
45.142886
 30
0.0
 11
124.23865
 21
45.142688
 31
0.0
  0
LINE
  5
149
330
10D
100
AcDbEntity
  8
0
  6
CONTINUOUS
 62
     7
100
AcDbLine
 10
124.23865
 20
45.142688
 30
0.0
 11
124.235915
 21
45.142489
 31
0.0
  0
LINE
  5
14A
330
10D
100
AcDbEntity
  8
0
  6
CONTINUOUS
 62
     7
100
AcDbLine
 10
124.235915
 20
45.142489
 30
0.0
 11
124.233151
 21
45.142288
 31
0.0
  0
LINE
  5
14B
330
10D
100
AcDbEntity
  8
0
  6
CONTINUOUS
 62
     7
100
AcDbLine
 10
124.233151
 20
45.142288
 30
0.0
 11
124.230358
 21
45.142086
 31
0.0
  0
LINE
  5
14C
330
10D
100
AcDbEntity
  8
0
  6
CONTINUOUS
 62
     7
100
AcDbLine
 10
124.230358
 20
45.142086
 30
0.0
 11
124.227537
 21
45.141882
 31
0.0
  0
LINE
  5
14D
330
10D
100
AcDbEntity
  8
0
  6
CONTINUOUS
 62
     7
100
AcDbLine
 10
124.227537
 20
45.141882
 30
0.0
 11
124.224688
 21
45.141677
 31
0.0
  0
LINE
  5
14E
330
10D
100
AcDbEntity
  8
0
  6
CONTINUOUS
 62
     7
100
AcDbLine
 10
124.224688
 20
45.141677
 30
0.0
 11
124.221811
 21
45.141471
 31
0.0
  0
LINE
  5
14F
330
10D
100
AcDbEntity
  8
0
  6
CONTINUOUS
 62
     7
100
AcDbLine
 10
124.221811
 20
45.141471
 30
0.0
 11
124.218907
 21
45.141263
 31
0.0
  0
LINE
  5
150
330
10D
100
AcDbEntity
  8
0
  6
CONTINUOUS
 62
     7
100
AcDbLine
 10
124.218907
 20
45.141263
 30
0.0
 11
124.215975
 21
45.141054
 31
0.0
  0
LINE
  5
151
330
10D
100
AcDbEntity
  8
0
  6
CONTINUOUS
 62
     7
100
AcDbLine
 10
124.215975
 20
45.141054
 30
0.0
 11
124.213016
 21
45.140844
 31
0.0
  0
LINE
  5
152
330
10D
100
AcDbEntity
  8
0
  6
CONTINUOUS
 62
     7
100
AcDbLine
 10
124.213016
 20
45.140844
 30
0.0
 11
124.210031
 21
45.140633
 31
0.0
  0
LINE
  5
153
330
10D
100
AcDbEntity
  8
0
  6
CONTINUOUS
 62
     7
100
AcDbLine
 10
124.210031
 20
45.140633
 30
0.0
 11
124.207019
 21
45.14042
 31
0.0
  0
LINE
  5
154
330
10D
100
AcDbEntity
  8
0
  6
CONTINUOUS
 62
     7
100
AcDbLine
 10
124.207019
 20
45.14042
 30
0.0
 11
124.20398
 21
45.140206
 31
0.0
  0
LINE
  5
155
330
10D
100
AcDbEntity
  8
0
  6
CONTINUOUS
 62
     7
100
AcDbLine
 10
124.20398
 20
45.140206
 30
0.0
 11
124.200916
 21
45.139991
 31
0.0
  0
LINE
  5
156
330
10D
100
AcDbEntity
  8
0
  6
CONTINUOUS
 62
     7
100
AcDbLine
 10
124.200916
 20
45.139991
 30
0.0
 11
124.197826
 21
45.139776
 31
0.0
  0
LINE
  5
157
330
10D
100
AcDbEntity
  8
0
  6
CONTINUOUS
 62
     7
100
AcDbLine
 10
124.197826
 20
45.139776
 30
0.0
 11
124.19471
 21
45.139559
 31
0.0
  0
LINE
  5
158
330
10D
100
AcDbEntity
  8
0
  6
CONTINUOUS
 62
     7
100
AcDbLine
 10
124.19471
 20
45.139559
 30
0.0
 11
124.191569
 21
45.139341
 31
0.0
  0
LINE
  5
159
330
10D
100
AcDbEntity
  8
0
  6
CONTINUOUS
 62
     7
100
AcDbLine
 10
124.191569
 20
45.139341
 30
0.0
 11
124.188403
 21
45.139122
 31
0.0
  0
LINE
  5
15A
330
10D
100
AcDbEntity
  8
0
  6
CONTINUOUS
 62
     7
100
AcDbLine
 10
124.188403
 20
45.139122
 30
0.0
 11
124.185212
 21
45.138902
 31
0.0
  0
LINE
  5
15B
330
10D
100
AcDbEntity
  8
0
  6
CONTINUOUS
 62
     7
100
AcDbLine
 10
124.185212
 20
45.138902
 30
0.0
 11
124.181997
 21
45.138681
 31
0.0
  0
LINE
  5
15C
330
10D
100
AcDbEntity
  8
0
  6
CONTINUOUS
 62
     7
100
AcDbLine
 10
124.181997
 20
45.138681
 30
0.0
 11
124.178758
 21
45.138459
 31
0.0
  0
LINE
  5
15D
330
10D
100
AcDbEntity
  8
0
  6
CONTINUOUS
 62
     7
100
AcDbLine
 10
124.178758
 20
45.138459
 30
0.0
 11
124.175494
 21
45.138236
 31
0.0
  0
LINE
  5
15E
330
10D
100
AcDbEntity
  8
0
  6
CONTINUOUS
 62
     7
100
AcDbLine
 10
124.175494
 20
45.138236
 30
0.0
 11
124.172207
 21
45.138013
 31
0.0
  0
LINE
  5
15F
330
10D
100
AcDbEntity
  8
0
  6
CONTINUOUS
 62
     7
100
AcDbLine
 10
124.172207
 20
45.138013
 30
0.0
 11
124.168897
 21
45.137788
 31
0.0
  0
LINE
  5
160
330
10D
100
AcDbEntity
  8
0
  6
CONTINUOUS
 62
     7
100
AcDbLine
 10
124.168897
 20
45.137788
 30
0.0
 11
124.165563
 21
45.137563
 31
0.0
  0
LINE
  5
161
330
10D
100
AcDbEntity
  8
0
  6
CONTINUOUS
 62
     7
100
AcDbLine
 10
124.165563
 20
45.137563
 30
0.0
 11
124.162207
 21
45.137337
 31
0.0
  0
LINE
  5
162
330
10D
100
AcDbEntity
  8
0
  6
CONTINUOUS
 62
     7
100
AcDbLine
 10
124.162207
 20
45.137337
 30
0.0
 11
124.158827
 21
45.137111
 31
0.0
  0
LINE
  5
163
330
10D
100
AcDbEntity
  8
0
  6
CONTINUOUS
 62
     7
100
AcDbLine
 10
124.158827
 20
45.137111
 30
0.0
 11
124.155426
 21
45.136883
 31
0.0
  0
LINE
  5
164
330
10D
100
AcDbEntity
  8
0
  6
CONTINUOUS
 62
     7
100
AcDbLine
 10
124.155426
 20
45.136883
 30
0.0
 11
124.152002
 21
45.136656
 31
0.0
  0
LINE
  5
165
330
10D
100
AcDbEntity
  8
0
  6
CONTINUOUS
 62
     7
100
AcDbLine
 10
124.152002
 20
45.136656
 30
0.0
 11
124.148557
 21
45.136427
 31
0.0
  0
LINE
  5
166
330
10D
100
AcDbEntity
  8
0
  6
CONTINUOUS
 62
     7
100
AcDbLine
 10
124.148557
 20
45.136427
 30
0.0
 11
124.14509
 21
45.136198
 31
0.0
  0
LINE
  5
167
330
10D
100
AcDbEntity
  8
0
  6
CONTINUOUS
 62
     7
100
AcDbLine
 10
124.14509
 20
45.136198
 30
0.0
 11
124.141601
 21
45.135968
 31
0.0
  0
LINE
  5
168
330
10D
100
AcDbEntity
  8
0
  6
CONTINUOUS
 62
     7
100
AcDbLine
 10
124.141601
 20
45.135968
 30
0.0
 11
124.138091
 21
45.135738
 31
0.0
  0
LINE
  5
169
330
10D
100
AcDbEntity
  8
0
  6
CONTINUOUS
 62
     7
100
AcDbLine
 10
124.138091
 20
45.135738
 30
0.0
 11
124.134561
 21
45.135507
 31
0.0
  0
LINE
  5
16A
330
10D
100
AcDbEntity
  8
0
  6
CONTINUOUS
 62
     7
100
AcDbLine
 10
124.134561
 20
45.135507
 30
0.0
 11
124.13101
 21
45.135276
 31
0.0
  0
LINE
  5
16B
330
10D
100
AcDbEntity
  8
0
  6
CONTINUOUS
 62
     7
100
AcDbLine
 10
124.13101
 20
45.135276
 30
0.0
 11
124.127439
 21
45.135044
 31
0.0
  0
LINE
  5
16C
330
10D
100
AcDbEntity
  8
0
  6
CONTINUOUS
 62
     7
100
AcDbLine
 10
124.127439
 20
45.135044
 30
0.0
 11
124.123847
 21
45.134812
 31
0.0
  0
LINE
  5
16D
330
10D
100
AcDbEntity
  8
0
  6
CONTINUOUS
 62
     7
100
AcDbLine
 10
124.123847
 20
45.134812
 30
0.0
 11
124.120236
 21
45.13458
 31
0.0
  0
LINE
  5
16E
330
10D
100
AcDbEntity
  8
0
  6
CONTINUOUS
 62
     7
100
AcDbLine
 10
124.120236
 20
45.13458
 30
0.0
 11
124.116606
 21
45.134347
 31
0.0
  0
LINE
  5
16F
330
10D
100
AcDbEntity
  8
0
  6
CONTINUOUS
 62
     7
100
AcDbLine
 10
124.116606
 20
45.134347
 30
0.0
 11
124.112956
 21
45.134114
 31
0.0
  0
LINE
  5
170
330
10D
100
AcDbEntity
  8
0
  6
CONTINUOUS
 62
     7
100
AcDbLine
 10
124.112956
 20
45.134114
 30
0.0
 11
124.109287
 21
45.133881
 31
0.0
  0
LINE
  5
171
330
10D
100
AcDbEntity
  8
0
  6
CONTINUOUS
 62
     7
100
AcDbLine
 10
124.109287
 20
45.133881
 30
0.0
 11
124.105599
 21
45.133647
 31
0.0
  0
LINE
  5
172
330
10D
100
AcDbEntity
  8
0
  6
CONTINUOUS
 62
     7
100
AcDbLine
 10
124.105599
 20
45.133647
 30
0.0
 11
124.101905
 21
45.133414
 31
0.0
  0
LINE
  5
173
330
10D
100
AcDbEntity
  8
0
  6
CONTINUOUS
 62
     7
100
AcDbLine
 10
124.101905
 20
45.133414
 30
0.0
 11
124.098193
 21
45.133181
 31
0.0
  0
LINE
  5
174
330
10D
100
AcDbEntity
  8
0
  6
CONTINUOUS
 62
     7
100
AcDbLine
 10
124.098193
 20
45.133181
 30
0.0
 11
124.094463
 21
45.132947
 31
0.0
  0
LINE
  5
175
330
10D
100
AcDbEntity
  8
0
  6
CONTINUOUS
 62
     7
100
AcDbLine
 10
124.094463
 20
45.132947
 30
0.0
 11
124.090714
 21
45.132714
 31
0.0
  0
LINE
  5
176
330
10D
100
AcDbEntity
  8
0
  6
CONTINUOUS
 62
     7
100
AcDbLine
 10
124.090714
 20
45.132714
 30
0.0
 11
124.086947
 21
45.13248
 31
0.0
  0
LINE
  5
177
330
10D
100
AcDbEntity
  8
0
  6
CONTINUOUS
 62
     7
100
AcDbLine
 10
124.086947
 20
45.13248
 30
0.0
 11
124.083162
 21
45.132247
 31
0.0
  0
LINE
  5
178
330
10D
100
AcDbEntity
  8
0
  6
CONTINUOUS
 62
     7
100
AcDbLine
 10
124.083162
 20
45.132247
 30
0.0
 11
124.079359
 21
45.132013
 31
0.0
  0
LINE
  5
179
330
10D
100
AcDbEntity
  8
0
  6
CONTINUOUS
 62
     7
100
AcDbLine
 10
124.079359
 20
45.132013
 30
0.0
 11
124.075538
 21
45.13178
 31
0.0
  0
LINE
  5
17A
330
10D
100
AcDbEntity
  8
0
  6
CONTINUOUS
 62
     7
100
AcDbLine
 10
124.075538
 20
45.13178
 30
0.0
 11
124.071699
 21
45.131546
 31
0.0
  0
LINE
  5
17B
330
10D
100
AcDbEntity
  8
0
  6
CONTINUOUS
 62
     7
100
AcDbLine
 10
124.071699
 20
45.131546
 30
0.0
 11
124.067843
 21
45.131313
 31
0.0
  0
LINE
  5
17C
330
10D
100
AcDbEntity
  8
0
  6
CONTINUOUS
 62
     7
100
AcDbLine
 10
124.067843
 20
45.131313
 30
0.0
 11
124.063968
 21
45.13108
 31
0.0
  0
LINE
  5
17D
330
10D
100
AcDbEntity
  8
0
  6
CONTINUOUS
 62
     7
100
AcDbLine
 10
124.063968
 20
45.13108
 30
0.0
 11
124.060076
 21
45.130847
 31
0.0
  0
LINE
  5
17E
330
10D
100
AcDbEntity
  8
0
  6
CONTINUOUS
 62
     7
100
AcDbLine
 10
124.060076
 20
45.130847
 30
0.0
 11
124.056166
 21
45.130614
 31
0.0
  0
LINE
  5
17F
330
10D
100
AcDbEntity
  8
0
  6
CONTINUOUS
 62
     7
100
AcDbLine
 10
124.056166
 20
45.130614
 30
0.0
 11
124.052238
 21
45.130381
 31
0.0
  0
LINE
  5
180
330
10D
100
AcDbEntity
  8
0
  6
CONTINUOUS
 62
     7
100
AcDbLine
 10
124.052238
 20
45.130381
 30
0.0
 11
124.048293
 21
45.130149
 31
0.0
  0
LINE
  5
181
330
10D
100
AcDbEntity
  8
0
  6
CONTINUOUS
 62
     7
100
AcDbLine
 10
124.048293
 20
45.130149
 30
0.0
 11
124.04433
 21
45.129917
 31
0.0
  0
LINE
  5
182
330
10D
100
AcDbEntity
  8
0
  6
CONTINUOUS
 62
     7
100
AcDbLine
 10
124.04433
 20
45.129917
 30
0.0
 11
124.04035
 21
45.129686
 31
0.0
  0
LINE
  5
183
330
10D
100
AcDbEntity
  8
0
  6
CONTINUOUS
 62
     7
100
AcDbLine
 10
124.04035
 20
45.129686
 30
0.0
 11
124.036352
 21
45.129455
 31
0.0
  0
LINE
  5
184
330
10D
100
AcDbEntity
  8
0
  6
CONTINUOUS
 62
     7
100
AcDbLine
 10
124.036352
 20
45.129455
 30
0.0
 11
124.032337
 21
45.129224
 31
0.0
  0
LINE
  5
185
330
10D
100
AcDbEntity
  8
0
  6
CONTINUOUS
 62
     7
100
AcDbLine
 10
124.032337
 20
45.129224
 30
0.0
 11
124.028304
 21
45.128994
 31
0.0
  0
LINE
  5
186
330
10D
100
AcDbEntity
  8
0
  6
CONTINUOUS
 62
     7
100
AcDbLine
 10
124.028304
 20
45.128994
 30
0.0
 11
124.024255
 21
45.128764
 31
0.0
  0
LINE
  5
187
330
10D
100
AcDbEntity
  8
0
  6
CONTINUOUS
 62
     7
100
AcDbLine
 10
124.024255
 20
45.128764
 30
0.0
 11
124.020188
 21
45.128535
 31
0.0
  0
LINE
  5
188
330
10D
100
AcDbEntity
  8
0
  6
CONTINUOUS
 62
     7
100
AcDbLine
 10
124.020188
 20
45.128535
 30
0.0
 11
124.018148
 21
45.128421
 31
0.0
  0
LINE
  5
189
330
10D
100
AcDbEntity
  8
0
  6
CONTINUOUS
 62
     7
100
AcDbLine
 10
124.018148
 20
45.128421
 30
0.0
 11
124.016103
 21
45.128306
 31
0.0
  0
LINE
  5
18A
330
10D
100
AcDbEntity
  8
0
  6
CONTINUOUS
 62
     7
100
AcDbLine
 10
124.016103
 20
45.128306
 30
0.0
 11
124.014055
 21
45.128192
 31
0.0
  0
LINE
  5
18B
330
10D
100
AcDbEntity
  8
0
  6
CONTINUOUS
 62
     7
100
AcDbLine
 10
124.014055
 20
45.128192
 30
0.0
 11
124.012002
 21
45.128078
 31
0.0
  0
LINE
  5
18C
330
10D
100
AcDbEntity
  8
0
  6
CONTINUOUS
 62
     7
100
AcDbLine
 10
124.012002
 20
45.128078
 30
0.0
 11
124.009945
 21
45.127965
 31
0.0
  0
LINE
  5
18D
330
10D
100
AcDbEntity
  8
0
  6
CONTINUOUS
 62
     7
100
AcDbLine
 10
124.009945
 20
45.127965
 30
0.0
 11
124.007884
 21
45.127851
 31
0.0
  0
LINE
  5
18E
330
10D
100
AcDbEntity
  8
0
  6
CONTINUOUS
 62
     7
100
AcDbLine
 10
124.007884
 20
45.127851
 30
0.0
 11
124.005818
 21
45.127738
 31
0.0
  0
LINE
  5
18F
330
10D
100
AcDbEntity
  8
0
  6
CONTINUOUS
 62
     7
100
AcDbLine
 10
124.005818
 20
45.127738
 30
0.0
 11
124.003749
 21
45.127625
 31
0.0
  0
LINE
  5
190
330
10D
100
AcDbEntity
  8
0
  6
CONTINUOUS
 62
     7
100
AcDbLine
 10
124.003749
 20
45.127625
 30
0.0
 11
124.001675
 21
45.127512
 31
0.0
  0
LINE
  5
191
330
10D
100
AcDbEntity
  8
0
  6
CONTINUOUS
 62
     7
100
AcDbLine
 10
124.001675
 20
45.127512
 30
0.0
 11
123.999596
 21
45.127399
 31
0.0
  0
LINE
  5
192
330
10D
100
AcDbEntity
  8
0
  6
CONTINUOUS
 62
     7
100
AcDbLine
 10
123.999596
 20
45.127399
 30
0.0
 11
123.997514
 21
45.127286
 31
0.0
  0
LINE
  5
193
330
10D
100
AcDbEntity
  8
0
  6
CONTINUOUS
 62
     7
100
AcDbLine
 10
123.997514
 20
45.127286
 30
0.0
 11
123.995427
 21
45.127174
 31
0.0
  0
LINE
  5
194
330
10D
100
AcDbEntity
  8
0
  6
CONTINUOUS
 62
     7
100
AcDbLine
 10
123.995427
 20
45.127174
 30
0.0
 11
123.993336
 21
45.127062
 31
0.0
  0
LINE
  5
195
330
10D
100
AcDbEntity
  8
0
  6
CONTINUOUS
 62
     7
100
AcDbLine
 10
123.993336
 20
45.127062
 30
0.0
 11
123.991241
 21
45.12695
 31
0.0
  0
LINE
  5
196
330
10D
100
AcDbEntity
  8
0
  6
CONTINUOUS
 62
     7
100
AcDbLine
 10
123.991241
 20
45.12695
 30
0.0
 11
123.989142
 21
45.126838
 31
0.0
  0
LINE
  5
197
330
10D
100
AcDbEntity
  8
0
  6
CONTINUOUS
 62
     7
100
AcDbLine
 10
123.989142
 20
45.126838
 30
0.0
 11
123.987038
 21
45.126726
 31
0.0
  0
LINE
  5
198
330
10D
100
AcDbEntity
  8
0
  6
CONTINUOUS
 62
     7
100
AcDbLine
 10
123.987038
 20
45.126726
 30
0.0
 11
123.984931
 21
45.126615
 31
0.0
  0
LINE
  5
199
330
10D
100
AcDbEntity
  8
0
  6
CONTINUOUS
 62
     7
100
AcDbLine
 10
123.984931
 20
45.126615
 30
0.0
 11
123.982819
 21
45.126504
 31
0.0
  0
LINE
  5
19A
330
10D
100
AcDbEntity
  8
0
  6
CONTINUOUS
 62
     7
100
AcDbLine
 10
123.982819
 20
45.126504
 30
0.0
 11
123.980703
 21
45.126393
 31
0.0
  0
LINE
  5
19B
330
10D
100
AcDbEntity
  8
0
  6
CONTINUOUS
 62
     7
100
AcDbLine
 10
123.980703
 20
45.126393
 30
0.0
 11
123.978583
 21
45.126282
 31
0.0
  0
LINE
  5
19C
330
10D
100
AcDbEntity
  8
0
  6
CONTINUOUS
 62
     7
100
AcDbLine
 10
123.978583
 20
45.126282
 30
0.0
 11
123.976458
 21
45.126172
 31
0.0
  0
LINE
  5
19D
330
10D
100
AcDbEntity
  8
0
  6
CONTINUOUS
 62
     7
100
AcDbLine
 10
123.976458
 20
45.126172
 30
0.0
 11
123.97433
 21
45.126061
 31
0.0
  0
LINE
  5
19E
330
10D
100
AcDbEntity
  8
0
  6
CONTINUOUS
 62
     7
100
AcDbLine
 10
123.97433
 20
45.126061
 30
0.0
 11
123.972197
 21
45.125951
 31
0.0
  0
LINE
  5
19F
330
10D
100
AcDbEntity
  8
0
  6
CONTINUOUS
 62
     7
100
AcDbLine
 10
123.972197
 20
45.125951
 30
0.0
 11
123.970061
 21
45.125842
 31
0.0
  0
LINE
  5
1A0
330
10D
100
AcDbEntity
  8
0
  6
CONTINUOUS
 62
     7
100
AcDbLine
 10
123.970061
 20
45.125842
 30
0.0
 11
123.96792
 21
45.125732
 31
0.0
  0
LINE
  5
1A1
330
10D
100
AcDbEntity
  8
0
  6
CONTINUOUS
 62
     7
100
AcDbLine
 10
123.96792
 20
45.125732
 30
0.0
 11
123.965775
 21
45.125623
 31
0.0
  0
LINE
  5
1A2
330
10D
100
AcDbEntity
  8
0
  6
CONTINUOUS
 62
     7
100
AcDbLine
 10
123.965775
 20
45.125623
 30
0.0
 11
123.963626
 21
45.125514
 31
0.0
  0
LINE
  5
1A3
330
10D
100
AcDbEntity
  8
0
  6
CONTINUOUS
 62
     7
100
AcDbLine
 10
123.963626
 20
45.125514
 30
0.0
 11
123.961472
 21
45.125406
 31
0.0
  0
LINE
  5
1A4
330
10D
100
AcDbEntity
  8
0
  6
CONTINUOUS
 62
     7
100
AcDbLine
 10
123.961472
 20
45.125406
 30
0.0
 11
123.959315
 21
45.125297
 31
0.0
  0
LINE
  5
1A5
330
10D
100
AcDbEntity
  8
0
  6
CONTINUOUS
 62
     7
100
AcDbLine
 10
123.959315
 20
45.125297
 30
0.0
 11
123.957154
 21
45.125189
 31
0.0
  0
LINE
  5
1A6
330
10D
100
AcDbEntity
  8
0
  6
CONTINUOUS
 62
     7
100
AcDbLine
 10
123.957154
 20
45.125189
 30
0.0
 11
123.954988
 21
45.125081
 31
0.0
  0
LINE
  5
1A7
330
10D
100
AcDbEntity
  8
0
  6
CONTINUOUS
 62
     7
100
AcDbLine
 10
123.954988
 20
45.125081
 30
0.0
 11
123.952819
 21
45.124974
 31
0.0
  0
LINE
  5
1A8
330
10D
100
AcDbEntity
  8
0
  6
CONTINUOUS
 62
     7
100
AcDbLine
 10
123.952819
 20
45.124974
 30
0.0
 11
123.950645
 21
45.124867
 31
0.0
  0
LINE
  5
1A9
330
10D
100
AcDbEntity
  8
0
  6
CONTINUOUS
 62
     7
100
AcDbLine
 10
123.950645
 20
45.124867
 30
0.0
 11
123.948467
 21
45.12476
 31
0.0
  0
LINE
  5
1AA
330
10D
100
AcDbEntity
  8
0
  6
CONTINUOUS
 62
     7
100
AcDbLine
 10
123.948467
 20
45.12476
 30
0.0
 11
123.946286
 21
45.124653
 31
0.0
  0
LINE
  5
1AB
330
10D
100
AcDbEntity
  8
0
  6
CONTINUOUS
 62
     7
100
AcDbLine
 10
123.946286
 20
45.124653
 30
0.0
 11
123.9441
 21
45.124547
 31
0.0
  0
LINE
  5
1AC
330
10D
100
AcDbEntity
  8
0
  6
CONTINUOUS
 62
     7
100
AcDbLine
 10
123.9441
 20
45.124547
 30
0.0
 11
123.94191
 21
45.124441
 31
0.0
  0
LINE
  5
1AD
330
10D
100
AcDbEntity
  8
0
  6
CONTINUOUS
 62
     7
100
AcDbLine
 10
123.94191
 20
45.124441
 30
0.0
 11
123.939716
 21
45.124335
 31
0.0
  0
LINE
  5
1AE
330
10D
100
AcDbEntity
  8
0
  6
CONTINUOUS
 62
     7
100
AcDbLine
 10
123.939716
 20
45.124335
 30
0.0
 11
123.937518
 21
45.12423
 31
0.0
  0
LINE
  5
1AF
330
10D
100
AcDbEntity
  8
0
  6
CONTINUOUS
 62
     7
100
AcDbLine
 10
123.937518
 20
45.12423
 30
0.0
 11
123.935316
 21
45.124125
 31
0.0
  0
LINE
  5
1B0
330
10D
100
AcDbEntity
  8
0
  6
CONTINUOUS
 62
     7
100
AcDbLine
 10
123.935316
 20
45.124125
 30
0.0
 11
123.93311
 21
45.12402
 31
0.0
  0
LINE
  5
1B1
330
10D
100
AcDbEntity
  8
0
  6
CONTINUOUS
 62
     7
100
AcDbLine
 10
123.93311
 20
45.12402
 30
0.0
 11
123.9309
 21
45.123916
 31
0.0
  0
LINE
  5
1B2
330
10D
100
AcDbEntity
  8
0
  6
CONTINUOUS
 62
     7
100
AcDbLine
 10
123.9309
 20
45.123916
 30
0.0
 11
123.928686
 21
45.123812
 31
0.0
  0
LINE
  5
1B3
330
10D
100
AcDbEntity
  8
0
  6
CONTINUOUS
 62
     7
100
AcDbLine
 10
123.928686
 20
45.123812
 30
0.0
 11
123.926468
 21
45.123708
 31
0.0
  0
LINE
  5
1B4
330
10D
100
AcDbEntity
  8
0
  6
CONTINUOUS
 62
     7
100
AcDbLine
 10
123.926468
 20
45.123708
 30
0.0
 11
123.924246
 21
45.123605
 31
0.0
  0
LINE
  5
1B5
330
10D
100
AcDbEntity
  8
0
  6
CONTINUOUS
 62
     7
100
AcDbLine
 10
123.924246
 20
45.123605
 30
0.0
 11
123.92202
 21
45.123502
 31
0.0
  0
LINE
  5
1B6
330
10D
100
AcDbEntity
  8
0
  6
CONTINUOUS
 62
     7
100
AcDbLine
 10
123.92202
 20
45.123502
 30
0.0
 11
123.91979
 21
45.123399
 31
0.0
  0
LINE
  5
1B7
330
10D
100
AcDbEntity
  8
0
  6
CONTINUOUS
 62
     7
100
AcDbLine
 10
123.91979
 20
45.123399
 30
0.0
 11
123.917556
 21
45.123297
 31
0.0
  0
LINE
  5
1B8
330
10D
100
AcDbEntity
  8
0
  6
CONTINUOUS
 62
     7
100
AcDbLine
 10
123.917556
 20
45.123297
 30
0.0
 11
123.915318
 21
45.123195
 31
0.0
  0
LINE
  5
1B9
330
10D
100
AcDbEntity
  8
0
  6
CONTINUOUS
 62
     7
100
AcDbLine
 10
123.915318
 20
45.123195
 30
0.0
 11
123.913076
 21
45.123093
 31
0.0
  0
LINE
  5
1BA
330
10D
100
AcDbEntity
  8
0
  6
CONTINUOUS
 62
     7
100
AcDbLine
 10
123.913076
 20
45.123093
 30
0.0
 11
123.910831
 21
45.122992
 31
0.0
  0
LINE
  5
1BB
330
10D
100
AcDbEntity
  8
0
  6
CONTINUOUS
 62
     7
100
AcDbLine
 10
123.910831
 20
45.122992
 30
0.0
 11
123.908581
 21
45.122891
 31
0.0
  0
LINE
  5
1BC
330
10D
100
AcDbEntity
  8
0
  6
CONTINUOUS
 62
     7
100
AcDbLine
 10
123.908581
 20
45.122891
 30
0.0
 11
123.906327
 21
45.122791
 31
0.0
  0
LINE
  5
1BD
330
10D
100
AcDbEntity
  8
0
  6
CONTINUOUS
 62
     7
100
AcDbLine
 10
123.906327
 20
45.122791
 30
0.0
 11
123.90407
 21
45.122691
 31
0.0
  0
LINE
  5
1BE
330
10D
100
AcDbEntity
  8
0
  6
CONTINUOUS
 62
     7
100
AcDbLine
 10
123.90407
 20
45.122691
 30
0.0
 11
123.901808
 21
45.122592
 31
0.0
  0
LINE
  5
1BF
330
10D
100
AcDbEntity
  8
0
  6
CONTINUOUS
 62
     7
100
AcDbLine
 10
123.901808
 20
45.122592
 30
0.0
 11
123.899543
 21
45.122492
 31
0.0
  0
LINE
  5
1C0
330
10D
100
AcDbEntity
  8
0
  6
CONTINUOUS
 62
     7
100
AcDbLine
 10
123.899543
 20
45.122492
 30
0.0
 11
123.897273
 21
45.122394
 31
0.0
  0
LINE
  5
1C1
330
10D
100
AcDbEntity
  8
0
  6
CONTINUOUS
 62
     7
100
AcDbLine
 10
123.897273
 20
45.122394
 30
0.0
 11
123.895
 21
45.122295
 31
0.0
  0
LINE
  5
1C2
330
10D
100
AcDbEntity
  8
0
  6
CONTINUOUS
 62
     7
100
AcDbLine
 10
123.895
 20
45.122295
 30
0.0
 11
123.892723
 21
45.122197
 31
0.0
  0
LINE
  5
1C3
330
10D
100
AcDbEntity
  8
0
  6
CONTINUOUS
 62
     7
100
AcDbLine
 10
123.892723
 20
45.122197
 30
0.0
 11
123.890442
 21
45.1221
 31
0.0
  0
LINE
  5
1C4
330
10D
100
AcDbEntity
  8
0
  6
CONTINUOUS
 62
     7
100
AcDbLine
 10
123.890442
 20
45.1221
 30
0.0
 11
123.888157
 21
45.122003
 31
0.0
  0
LINE
  5
1C5
330
10D
100
AcDbEntity
  8
0
  6
CONTINUOUS
 62
     7
100
AcDbLine
 10
123.888157
 20
45.122003
 30
0.0
 11
123.885868
 21
45.121906
 31
0.0
  0
LINE
  5
1C6
330
10D
100
AcDbEntity
  8
0
  6
CONTINUOUS
 62
     7
100
AcDbLine
 10
123.885868
 20
45.121906
 30
0.0
 11
123.883576
 21
45.12181
 31
0.0
  0
LINE
  5
1C7
330
10D
100
AcDbEntity
  8
0
  6
CONTINUOUS
 62
     7
100
AcDbLine
 10
123.883576
 20
45.12181
 30
0.0
 11
123.881279
 21
45.121714
 31
0.0
  0
LINE
  5
1C8
330
10D
100
AcDbEntity
  8
0
  6
CONTINUOUS
 62
     7
100
AcDbLine
 10
123.881279
 20
45.121714
 30
0.0
 11
123.878979
 21
45.121618
 31
0.0
  0
LINE
  5
1C9
330
10D
100
AcDbEntity
  8
0
  6
CONTINUOUS
 62
     7
100
AcDbLine
 10
123.878979
 20
45.121618
 30
0.0
 11
123.876674
 21
45.121523
 31
0.0
  0
LINE
  5
1CA
330
10D
100
AcDbEntity
  8
0
  6
CONTINUOUS
 62
     7
100
AcDbLine
 10
123.876674
 20
45.121523
 30
0.0
 11
123.874366
 21
45.121429
 31
0.0
  0
LINE
  5
1CB
330
10D
100
AcDbEntity
  8
0
  6
CONTINUOUS
 62
     7
100
AcDbLine
 10
123.874366
 20
45.121429
 30
0.0
 11
123.872054
 21
45.121335
 31
0.0
  0
LINE
  5
1CC
330
10D
100
AcDbEntity
  8
0
  6
CONTINUOUS
 62
     7
100
AcDbLine
 10
123.872054
 20
45.121335
 30
0.0
 11
123.869739
 21
45.121241
 31
0.0
  0
LINE
  5
1CD
330
10D
100
AcDbEntity
  8
0
  6
CONTINUOUS
 62
     7
100
AcDbLine
 10
123.869739
 20
45.121241
 30
0.0
 11
123.867419
 21
45.121148
 31
0.0
  0
LINE
  5
1CE
330
10D
100
AcDbEntity
  8
0
  6
CONTINUOUS
 62
     7
100
AcDbLine
 10
123.867419
 20
45.121148
 30
0.0
 11
123.865096
 21
45.121056
 31
0.0
  0
LINE
  5
1CF
330
10D
100
AcDbEntity
  8
0
  6
CONTINUOUS
 62
     7
100
AcDbLine
 10
123.865096
 20
45.121056
 30
0.0
 11
123.862769
 21
45.120963
 31
0.0
  0
LINE
  5
1D0
330
10D
100
AcDbEntity
  8
0
  6
CONTINUOUS
 62
     7
100
AcDbLine
 10
123.862769
 20
45.120963
 30
0.0
 11
123.860438
 21
45.120872
 31
0.0
  0
LINE
  5
1D1
330
10D
100
AcDbEntity
  8
0
  6
CONTINUOUS
 62
     7
100
AcDbLine
 10
123.860438
 20
45.120872
 30
0.0
 11
123.858103
 21
45.12078
 31
0.0
  0
LINE
  5
1D2
330
10D
100
AcDbEntity
  8
0
  6
CONTINUOUS
 62
     7
100
AcDbLine
 10
123.858103
 20
45.12078
 30
0.0
 11
123.855764
 21
45.12069
 31
0.0
  0
LINE
  5
1D3
330
10D
100
AcDbEntity
  8
0
  6
CONTINUOUS
 62
     7
100
AcDbLine
 10
123.855764
 20
45.12069
 30
0.0
 11
123.853422
 21
45.120599
 31
0.0
  0
LINE
  5
1D4
330
10D
100
AcDbEntity
  8
0
  6
CONTINUOUS
 62
     7
100
AcDbLine
 10
123.853422
 20
45.120599
 30
0.0
 11
123.851076
 21
45.12051
 31
0.0
  0
LINE
  5
1D5
330
10D
100
AcDbEntity
  8
0
  6
CONTINUOUS
 62
     7
100
AcDbLine
 10
123.851076
 20
45.12051
 30
0.0
 11
123.848726
 21
45.12042
 31
0.0
  0
LINE
  5
1D6
330
10D
100
AcDbEntity
  8
0
  6
CONTINUOUS
 62
     7
100
AcDbLine
 10
123.848726
 20
45.12042
 30
0.0
 11
123.846372
 21
45.120332
 31
0.0
  0
LINE
  5
1D7
330
10D
100
AcDbEntity
  8
0
  6
CONTINUOUS
 62
     7
100
AcDbLine
 10
123.846372
 20
45.120332
 30
0.0
 11
123.844015
 21
45.120244
 31
0.0
  0
LINE
  5
1D8
330
10D
100
AcDbEntity
  8
0
  6
CONTINUOUS
 62
     7
100
AcDbLine
 10
123.844015
 20
45.120244
 30
0.0
 11
123.841654
 21
45.120156
 31
0.0
  0
LINE
  5
1D9
330
10D
100
AcDbEntity
  8
0
  6
CONTINUOUS
 62
     7
100
AcDbLine
 10
123.841654
 20
45.120156
 30
0.0
 11
123.839289
 21
45.120069
 31
0.0
  0
LINE
  5
1DA
330
10D
100
AcDbEntity
  8
0
  6
CONTINUOUS
 62
     7
100
AcDbLine
 10
123.839289
 20
45.120069
 30
0.0
 11
123.83692
 21
45.119982
 31
0.0
  0
LINE
  5
1DB
330
10D
100
AcDbEntity
  8
0
  6
CONTINUOUS
 62
     7
100
AcDbLine
 10
123.83692
 20
45.119982
 30
0.0
 11
123.834548
 21
45.119896
 31
0.0
  0
LINE
  5
1DC
330
10D
100
AcDbEntity
  8
0
  6
CONTINUOUS
 62
     7
100
AcDbLine
 10
123.834548
 20
45.119896
 30
0.0
 11
123.832272
 21
45.119814
 31
0.0
  0
LINE
  5
1DD
330
10D
100
AcDbEntity
  8
0
  6
CONTINUOUS
 62
     7
100
AcDbLine
 10
123.832272
 20
45.119814
 30
0.0
 11
123.829992
 21
45.119732
 31
0.0
  0
LINE
  5
1DE
330
10D
100
AcDbEntity
  8
0
  6
CONTINUOUS
 62
     7
100
AcDbLine
 10
123.829992
 20
45.119732
 30
0.0
 11
123.827708
 21
45.119651
 31
0.0
  0
LINE
  5
1DF
330
10D
100
AcDbEntity
  8
0
  6
CONTINUOUS
 62
     7
100
AcDbLine
 10
123.827708
 20
45.119651
 30
0.0
 11
123.825422
 21
45.119571
 31
0.0
  0
LINE
  5
1E0
330
10D
100
AcDbEntity
  8
0
  6
CONTINUOUS
 62
     7
100
AcDbLine
 10
123.825422
 20
45.119571
 30
0.0
 11
123.823132
 21
45.119491
 31
0.0
  0
LINE
  5
1E1
330
10D
100
AcDbEntity
  8
0
  6
CONTINUOUS
 62
     7
100
AcDbLine
 10
123.823132
 20
45.119491
 30
0.0
 11
123.820839
 21
45.119411
 31
0.0
  0
LINE
  5
1E2
330
10D
100
AcDbEntity
  8
0
  6
CONTINUOUS
 62
     7
100
AcDbLine
 10
123.820839
 20
45.119411
 30
0.0
 11
123.818543
 21
45.119332
 31
0.0
  0
LINE
  5
1E3
330
10D
100
AcDbEntity
  8
0
  6
CONTINUOUS
 62
     7
100
AcDbLine
 10
123.818543
 20
45.119332
 30
0.0
 11
123.816243
 21
45.119254
 31
0.0
  0
LINE
  5
1E4
330
10D
100
AcDbEntity
  8
0
  6
CONTINUOUS
 62
     7
100
AcDbLine
 10
123.816243
 20
45.119254
 30
0.0
 11
123.813941
 21
45.119176
 31
0.0
  0
LINE
  5
1E5
330
10D
100
AcDbEntity
  8
0
  6
CONTINUOUS
 62
     7
100
AcDbLine
 10
123.813941
 20
45.119176
 30
0.0
 11
123.811635
 21
45.119098
 31
0.0
  0
LINE
  5
1E6
330
10D
100
AcDbEntity
  8
0
  6
CONTINUOUS
 62
     7
100
AcDbLine
 10
123.811635
 20
45.119098
 30
0.0
 11
123.809326
 21
45.119021
 31
0.0
  0
LINE
  5
1E7
330
10D
100
AcDbEntity
  8
0
  6
CONTINUOUS
 62
     7
100
AcDbLine
 10
123.809326
 20
45.119021
 30
0.0
 11
123.807014
 21
45.118945
 31
0.0
  0
LINE
  5
1E8
330
10D
100
AcDbEntity
  8
0
  6
CONTINUOUS
 62
     7
100
AcDbLine
 10
123.807014
 20
45.118945
 30
0.0
 11
123.804699
 21
45.118869
 31
0.0
  0
LINE
  5
1E9
330
10D
100
AcDbEntity
  8
0
  6
CONTINUOUS
 62
     7
100
AcDbLine
 10
123.804699
 20
45.118869
 30
0.0
 11
123.80238
 21
45.118794
 31
0.0
  0
LINE
  5
1EA
330
10D
100
AcDbEntity
  8
0
  6
CONTINUOUS
 62
     7
100
AcDbLine
 10
123.80238
 20
45.118794
 30
0.0
 11
123.800059
 21
45.11872
 31
0.0
  0
LINE
  5
1EB
330
10D
100
AcDbEntity
  8
0
  6
CONTINUOUS
 62
     7
100
AcDbLine
 10
123.800059
 20
45.11872
 30
0.0
 11
123.797735
 21
45.118646
 31
0.0
  0
LINE
  5
1EC
330
10D
100
AcDbEntity
  8
0
  6
CONTINUOUS
 62
     7
100
AcDbLine
 10
123.797735
 20
45.118646
 30
0.0
 11
123.795408
 21
45.118572
 31
0.0
  0
LINE
  5
1ED
330
10D
100
AcDbEntity
  8
0
  6
CONTINUOUS
 62
     7
100
AcDbLine
 10
123.795408
 20
45.118572
 30
0.0
 11
123.793078
 21
45.118499
 31
0.0
  0
LINE
  5
1EE
330
10D
100
AcDbEntity
  8
0
  6
CONTINUOUS
 62
     7
100
AcDbLine
 10
123.793078
 20
45.118499
 30
0.0
 11
123.790745
 21
45.118427
 31
0.0
  0
LINE
  5
1EF
330
10D
100
AcDbEntity
  8
0
  6
CONTINUOUS
 62
     7
100
AcDbLine
 10
123.790745
 20
45.118427
 30
0.0
 11
123.78841
 21
45.118355
 31
0.0
  0
LINE
  5
1F0
330
10D
100
AcDbEntity
  8
0
  6
CONTINUOUS
 62
     7
100
AcDbLine
 10
123.78841
 20
45.118355
 30
0.0
 11
123.786071
 21
45.118284
 31
0.0
  0
LINE
  5
1F1
330
10D
100
AcDbEntity
  8
0
  6
CONTINUOUS
 62
     7
100
AcDbLine
 10
123.786071
 20
45.118284
 30
0.0
 11
123.78373
 21
45.118214
 31
0.0
  0
LINE
  5
1F2
330
10D
100
AcDbEntity
  8
0
  6
CONTINUOUS
 62
     7
100
AcDbLine
 10
123.78373
 20
45.118214
 30
0.0
 11
123.781386
 21
45.118144
 31
0.0
  0
LINE
  5
1F3
330
10D
100
AcDbEntity
  8
0
  6
CONTINUOUS
 62
     7
100
AcDbLine
 10
123.781386
 20
45.118144
 30
0.0
 11
123.779039
 21
45.118074
 31
0.0
  0
LINE
  5
1F4
330
10D
100
AcDbEntity
  8
0
  6
CONTINUOUS
 62
     7
100
AcDbLine
 10
123.779039
 20
45.118074
 30
0.0
 11
123.77669
 21
45.118006
 31
0.0
  0
LINE
  5
1F5
330
10D
100
AcDbEntity
  8
0
  6
CONTINUOUS
 62
     7
100
AcDbLine
 10
123.77669
 20
45.118006
 30
0.0
 11
123.774338
 21
45.117938
 31
0.0
  0
LINE
  5
1F6
330
10D
100
AcDbEntity
  8
0
  6
CONTINUOUS
 62
     7
100
AcDbLine
 10
123.774338
 20
45.117938
 30
0.0
 11
123.771983
 21
45.11787
 31
0.0
  0
LINE
  5
1F7
330
10D
100
AcDbEntity
  8
0
  6
CONTINUOUS
 62
     7
100
AcDbLine
 10
123.771983
 20
45.11787
 30
0.0
 11
123.769626
 21
45.117804
 31
0.0
  0
LINE
  5
1F8
330
10D
100
AcDbEntity
  8
0
  6
CONTINUOUS
 62
     7
100
AcDbLine
 10
123.769626
 20
45.117804
 30
0.0
 11
123.767266
 21
45.117738
 31
0.0
  0
LINE
  5
1F9
330
10D
100
AcDbEntity
  8
0
  6
CONTINUOUS
 62
     7
100
AcDbLine
 10
123.767266
 20
45.117738
 30
0.0
 11
123.764903
 21
45.117672
 31
0.0
  0
LINE
  5
1FA
330
10D
100
AcDbEntity
  8
0
  6
CONTINUOUS
 62
     7
100
AcDbLine
 10
123.764903
 20
45.117672
 30
0.0
 11
123.762538
 21
45.117607
 31
0.0
  0
LINE
  5
1FB
330
10D
100
AcDbEntity
  8
0
  6
CONTINUOUS
 62
     7
100
AcDbLine
 10
123.762538
 20
45.117607
 30
0.0
 11
123.760171
 21
45.117543
 31
0.0
  0
LINE
  5
1FC
330
10D
100
AcDbEntity
  8
0
  6
CONTINUOUS
 62
     7
100
AcDbLine
 10
123.760171
 20
45.117543
 30
0.0
 11
123.757801
 21
45.11748
 31
0.0
  0
LINE
  5
1FD
330
10D
100
AcDbEntity
  8
0
  6
CONTINUOUS
 62
     7
100
AcDbLine
 10
123.757801
 20
45.11748
 30
0.0
 11
123.755428
 21
45.117417
 31
0.0
  0
LINE
  5
1FE
330
10D
100
AcDbEntity
  8
0
  6
CONTINUOUS
 62
     7
100
AcDbLine
 10
123.755428
 20
45.117417
 30
0.0
 11
123.753053
 21
45.117355
 31
0.0
  0
LINE
  5
1FF
330
10D
100
AcDbEntity
  8
0
  6
CONTINUOUS
 62
     7
100
AcDbLine
 10
123.753053
 20
45.117355
 30
0.0
 11
123.750676
 21
45.117294
 31
0.0
  0
LINE
  5
200
330
10D
100
AcDbEntity
  8
0
  6
CONTINUOUS
 62
     7
100
AcDbLine
 10
123.750676
 20
45.117294
 30
0.0
 11
123.748297
 21
45.117233
 31
0.0
  0
LINE
  5
201
330
10D
100
AcDbEntity
  8
0
  6
CONTINUOUS
 62
     7
100
AcDbLine
 10
123.748297
 20
45.117233
 30
0.0
 11
123.745915
 21
45.117173
 31
0.0
  0
LINE
  5
202
330
10D
100
AcDbEntity
  8
0
  6
CONTINUOUS
 62
     7
100
AcDbLine
 10
123.745915
 20
45.117173
 30
0.0
 11
123.743531
 21
45.117113
 31
0.0
  0
LINE
  5
203
330
10D
100
AcDbEntity
  8
0
  6
CONTINUOUS
 62
     7
100
AcDbLine
 10
123.743531
 20
45.117113
 30
0.0
 11
123.741145
 21
45.117055
 31
0.0
  0
LINE
  5
204
330
10D
100
AcDbEntity
  8
0
  6
CONTINUOUS
 62
     7
100
AcDbLine
 10
123.741145
 20
45.117055
 30
0.0
 11
123.738756
 21
45.116997
 31
0.0
  0
LINE
  5
205
330
10D
100
AcDbEntity
  8
0
  6
CONTINUOUS
 62
     7
100
AcDbLine
 10
123.738756
 20
45.116997
 30
0.0
 11
123.736365
 21
45.11694
 31
0.0
  0
LINE
  5
206
330
10D
100
AcDbEntity
  8
0
  6
CONTINUOUS
 62
     7
100
AcDbLine
 10
123.736365
 20
45.11694
 30
0.0
 11
123.733972
 21
45.116883
 31
0.0
  0
LINE
  5
207
330
10D
100
AcDbEntity
  8
0
  6
CONTINUOUS
 62
     7
100
AcDbLine
 10
123.733972
 20
45.116883
 30
0.0
 11
123.731577
 21
45.116828
 31
0.0
  0
LINE
  5
208
330
10D
100
AcDbEntity
  8
0
  6
CONTINUOUS
 62
     7
100
AcDbLine
 10
123.731577
 20
45.116828
 30
0.0
 11
123.72918
 21
45.116773
 31
0.0
  0
LINE
  5
209
330
10D
100
AcDbEntity
  8
0
  6
CONTINUOUS
 62
     7
100
AcDbLine
 10
123.72918
 20
45.116773
 30
0.0
 11
123.726781
 21
45.116718
 31
0.0
  0
LINE
  5
20A
330
10D
100
AcDbEntity
  8
0
  6
CONTINUOUS
 62
     7
100
AcDbLine
 10
123.726781
 20
45.116718
 30
0.0
 11
123.72438
 21
45.116665
 31
0.0
  0
LINE
  5
20B
330
10D
100
AcDbEntity
  8
0
  6
CONTINUOUS
 62
     7
100
AcDbLine
 10
123.72438
 20
45.116665
 30
0.0
 11
123.721976
 21
45.116612
 31
0.0
  0
LINE
  5
20C
330
10D
100
AcDbEntity
  8
0
  6
CONTINUOUS
 62
     7
100
AcDbLine
 10
123.721976
 20
45.116612
 30
0.0
 11
123.719571
 21
45.11656
 31
0.0
  0
LINE
  5
20D
330
10D
100
AcDbEntity
  8
0
  6
CONTINUOUS
 62
     7
100
AcDbLine
 10
123.719571
 20
45.11656
 30
0.0
 11
123.717164
 21
45.116509
 31
0.0
  0
LINE
  5
20E
330
10D
100
AcDbEntity
  8
0
  6
CONTINUOUS
 62
     7
100
AcDbLine
 10
123.717164
 20
45.116509
 30
0.0
 11
123.714755
 21
45.116458
 31
0.0
  0
LINE
  5
20F
330
10D
100
AcDbEntity
  8
0
  6
CONTINUOUS
 62
     7
100
AcDbLine
 10
123.714755
 20
45.116458
 30
0.0
 11
123.712344
 21
45.116409
 31
0.0
  0
LINE
  5
210
330
10D
100
AcDbEntity
  8
0
  6
CONTINUOUS
 62
     7
100
AcDbLine
 10
123.712344
 20
45.116409
 30
0.0
 11
123.709931
 21
45.11636
 31
0.0
  0
LINE
  5
211
330
10D
100
AcDbEntity
  8
0
  6
CONTINUOUS
 62
     7
100
AcDbLine
 10
123.709931
 20
45.11636
 30
0.0
 11
123.707516
 21
45.116312
 31
0.0
  0
LINE
  5
212
330
10D
100
AcDbEntity
  8
0
  6
CONTINUOUS
 62
     7
100
AcDbLine
 10
123.707516
 20
45.116312
 30
0.0
 11
123.7051
 21
45.116264
 31
0.0
  0
LINE
  5
213
330
10D
100
AcDbEntity
  8
0
  6
CONTINUOUS
 62
     7
100
AcDbLine
 10
123.7051
 20
45.116264
 30
0.0
 11
123.702681
 21
45.116218
 31
0.0
  0
LINE
  5
214
330
10D
100
AcDbEntity
  8
0
  6
CONTINUOUS
 62
     7
100
AcDbLine
 10
123.702681
 20
45.116218
 30
0.0
 11
123.700261
 21
45.116172
 31
0.0
  0
LINE
  5
215
330
10D
100
AcDbEntity
  8
0
  6
CONTINUOUS
 62
     7
100
AcDbLine
 10
123.700261
 20
45.116172
 30
0.0
 11
123.69784
 21
45.116127
 31
0.0
  0
LINE
  5
216
330
10D
100
AcDbEntity
  8
0
  6
CONTINUOUS
 62
     7
100
AcDbLine
 10
123.69784
 20
45.116127
 30
0.0
 11
123.695416
 21
45.116083
 31
0.0
  0
LINE
  5
217
330
10D
100
AcDbEntity
  8
0
  6
CONTINUOUS
 62
     7
100
AcDbLine
 10
123.695416
 20
45.116083
 30
0.0
 11
123.692991
 21
45.11604
 31
0.0
  0
LINE
  5
218
330
10D
100
AcDbEntity
  8
0
  6
CONTINUOUS
 62
     7
100
AcDbLine
 10
123.692991
 20
45.11604
 30
0.0
 11
123.690564
 21
45.115997
 31
0.0
  0
LINE
  5
219
330
10D
100
AcDbEntity
  8
0
  6
CONTINUOUS
 62
     7
100
AcDbLine
 10
123.690564
 20
45.115997
 30
0.0
 11
123.688136
 21
45.115956
 31
0.0
  0
LINE
  5
21A
330
10D
100
AcDbEntity
  8
0
  6
CONTINUOUS
 62
     7
100
AcDbLine
 10
123.688136
 20
45.115956
 30
0.0
 11
123.685706
 21
45.115915
 31
0.0
  0
LINE
  5
21B
330
10D
100
AcDbEntity
  8
0
  6
CONTINUOUS
 62
     7
100
AcDbLine
 10
123.685706
 20
45.115915
 30
0.0
 11
123.683275
 21
45.115875
 31
0.0
  0
LINE
  5
21C
330
10D
100
AcDbEntity
  8
0
  6
CONTINUOUS
 62
     7
100
AcDbLine
 10
123.683275
 20
45.115875
 30
0.0
 11
123.68078
 21
45.115835
 31
0.0
  0
LINE
  5
21D
330
10D
100
AcDbEntity
  8
0
  6
CONTINUOUS
 62
     7
100
AcDbLine
 10
123.68078
 20
45.115835
 30
0.0
 11
123.678284
 21
45.115795
 31
0.0
  0
LINE
  5
21E
330
10D
100
AcDbEntity
  8
0
  6
CONTINUOUS
 62
     7
100
AcDbLine
 10
123.678284
 20
45.115795
 30
0.0
 11
123.675786
 21
45.115757
 31
0.0
  0
LINE
  5
21F
330
10D
100
AcDbEntity
  8
0
  6
CONTINUOUS
 62
     7
100
AcDbLine
 10
123.675786
 20
45.115757
 30
0.0
 11
123.673287
 21
45.11572
 31
0.0
  0
LINE
  5
220
330
10D
100
AcDbEntity
  8
0
  6
CONTINUOUS
 62
     7
100
AcDbLine
 10
123.673287
 20
45.11572
 30
0.0
 11
123.670786
 21
45.115683
 31
0.0
  0
LINE
  5
221
330
10D
100
AcDbEntity
  8
0
  6
CONTINUOUS
 62
     7
100
AcDbLine
 10
123.670786
 20
45.115683
 30
0.0
 11
123.668284
 21
45.115647
 31
0.0
  0
LINE
  5
222
330
10D
100
AcDbEntity
  8
0
  6
CONTINUOUS
 62
     7
100
AcDbLine
 10
123.668284
 20
45.115647
 30
0.0
 11
123.66578
 21
45.115612
 31
0.0
  0
LINE
  5
223
330
10D
100
AcDbEntity
  8
0
  6
CONTINUOUS
 62
     7
100
AcDbLine
 10
123.66578
 20
45.115612
 30
0.0
 11
123.663275
 21
45.115578
 31
0.0
  0
LINE
  5
224
330
10D
100
AcDbEntity
  8
0
  6
CONTINUOUS
 62
     7
100
AcDbLine
 10
123.663275
 20
45.115578
 30
0.0
 11
123.660768
 21
45.115544
 31
0.0
  0
LINE
  5
225
330
10D
100
AcDbEntity
  8
0
  6
CONTINUOUS
 62
     7
100
AcDbLine
 10
123.660768
 20
45.115544
 30
0.0
 11
123.65826
 21
45.115511
 31
0.0
  0
LINE
  5
226
330
10D
100
AcDbEntity
  8
0
  6
CONTINUOUS
 62
     7
100
AcDbLine
 10
123.65826
 20
45.115511
 30
0.0
 11
123.655751
 21
45.11548
 31
0.0
  0
LINE
  5
227
330
10D
100
AcDbEntity
  8
0
  6
CONTINUOUS
 62
     7
100
AcDbLine
 10
123.655751
 20
45.11548
 30
0.0
 11
123.653241
 21
45.115448
 31
0.0
  0
LINE
  5
228
330
10D
100
AcDbEntity
  8
0
  6
CONTINUOUS
 62
     7
100
AcDbLine
 10
123.653241
 20
45.115448
 30
0.0
 11
123.650729
 21
45.115418
 31
0.0
  0
LINE
  5
229
330
10D
100
AcDbEntity
  8
0
  6
CONTINUOUS
 62
     7
100
AcDbLine
 10
123.650729
 20
45.115418
 30
0.0
 11
123.648216
 21
45.115388
 31
0.0
  0
LINE
  5
22A
330
10D
100
AcDbEntity
  8
0
  6
CONTINUOUS
 62
     7
100
AcDbLine
 10
123.648216
 20
45.115388
 30
0.0
 11
123.645702
 21
45.115359
 31
0.0
  0
LINE
  5
22B
330
10D
100
AcDbEntity
  8
0
  6
CONTINUOUS
 62
     7
100
AcDbLine
 10
123.645702
 20
45.115359
 30
0.0
 11
123.643186
 21
45.11533
 31
0.0
  0
LINE
  5
22C
330
10D
100
AcDbEntity
  8
0
  6
CONTINUOUS
 62
     7
100
AcDbLine
 10
123.643186
 20
45.11533
 30
0.0
 11
123.64067
 21
45.115303
 31
0.0
  0
LINE
  5
22D
330
10D
100
AcDbEntity
  8
0
  6
CONTINUOUS
 62
     7
100
AcDbLine
 10
123.64067
 20
45.115303
 30
0.0
 11
123.638152
 21
45.115276
 31
0.0
  0
LINE
  5
22E
330
10D
100
AcDbEntity
  8
0
  6
CONTINUOUS
 62
     7
100
AcDbLine
 10
123.638152
 20
45.115276
 30
0.0
 11
123.635633
 21
45.115249
 31
0.0
  0
LINE
  5
22F
330
10D
100
AcDbEntity
  8
0
  6
CONTINUOUS
 62
     7
100
AcDbLine
 10
123.635633
 20
45.115249
 30
0.0
 11
123.633113
 21
45.115223
 31
0.0
  0
LINE
  5
230
330
10D
100
AcDbEntity
  8
0
  6
CONTINUOUS
 62
     7
100
AcDbLine
 10
123.633113
 20
45.115223
 30
0.0
 11
123.630592
 21
45.115198
 31
0.0
  0
LINE
  5
231
330
10D
100
AcDbEntity
  8
0
  6
CONTINUOUS
 62
     7
100
AcDbLine
 10
123.630592
 20
45.115198
 30
0.0
 11
123.628069
 21
45.115174
 31
0.0
  0
LINE
  5
232
330
10D
100
AcDbEntity
  8
0
  6
CONTINUOUS
 62
     7
100
AcDbLine
 10
123.628069
 20
45.115174
 30
0.0
 11
123.625546
 21
45.11515
 31
0.0
  0
LINE
  5
233
330
10D
100
AcDbEntity
  8
0
  6
CONTINUOUS
 62
     7
100
AcDbLine
 10
123.625546
 20
45.11515
 30
0.0
 11
123.623022
 21
45.115126
 31
0.0
  0
LINE
  5
234
330
10D
100
AcDbEntity
  8
0
  6
CONTINUOUS
 62
     7
100
AcDbLine
 10
123.623022
 20
45.115126
 30
0.0
 11
123.620496
 21
45.115103
 31
0.0
  0
LINE
  5
235
330
10D
100
AcDbEntity
  8
0
  6
CONTINUOUS
 62
     7
100
AcDbLine
 10
123.620496
 20
45.115103
 30
0.0
 11
123.61797
 21
45.115081
 31
0.0
  0
LINE
  5
236
330
10D
100
AcDbEntity
  8
0
  6
CONTINUOUS
 62
     7
100
AcDbLine
 10
123.61797
 20
45.115081
 30
0.0
 11
123.615443
 21
45.115059
 31
0.0
  0
LINE
  5
237
330
10D
100
AcDbEntity
  8
0
  6
CONTINUOUS
 62
     7
100
AcDbLine
 10
123.615443
 20
45.115059
 30
0.0
 11
123.612915
 21
45.115038
 31
0.0
  0
LINE
  5
238
330
10D
100
AcDbEntity
  8
0
  6
CONTINUOUS
 62
     7
100
AcDbLine
 10
123.612915
 20
45.115038
 30
0.0
 11
123.610386
 21
45.115017
 31
0.0
  0
LINE
  5
239
330
10D
100
AcDbEntity
  8
0
  6
CONTINUOUS
 62
     7
100
AcDbLine
 10
123.610386
 20
45.115017
 30
0.0
 11
123.607856
 21
45.114996
 31
0.0
  0
LINE
  5
23A
330
10D
100
AcDbEntity
  8
0
  6
CONTINUOUS
 62
     7
100
AcDbLine
 10
123.607856
 20
45.114996
 30
0.0
 11
123.605325
 21
45.114977
 31
0.0
  0
LINE
  5
23B
330
10D
100
AcDbEntity
  8
0
  6
CONTINUOUS
 62
     7
100
AcDbLine
 10
123.605325
 20
45.114977
 30
0.0
 11
123.602794
 21
45.114957
 31
0.0
  0
LINE
  5
23C
330
10D
100
AcDbEntity
  8
0
  6
CONTINUOUS
 62
     7
100
AcDbLine
 10
123.602794
 20
45.114957
 30
0.0
 11
123.600262
 21
45.114938
 31
0.0
  0
LINE
  5
23D
330
10D
100
AcDbEntity
  8
0
  6
CONTINUOUS
 62
     7
100
AcDbLine
 10
123.600262
 20
45.114938
 30
0.0
 11
123.597729
 21
45.11492
 31
0.0
  0
LINE
  5
23E
330
10D
100
AcDbEntity
  8
0
  6
CONTINUOUS
 62
     7
100
AcDbLine
 10
123.597729
 20
45.11492
 30
0.0
 11
123.595195
 21
45.114902
 31
0.0
  0
LINE
  5
23F
330
10D
100
AcDbEntity
  8
0
  6
CONTINUOUS
 62
     7
100
AcDbLine
 10
123.595195
 20
45.114902
 30
0.0
 11
123.59266
 21
45.114884
 31
0.0
  0
LINE
  5
240
330
10D
100
AcDbEntity
  8
0
  6
CONTINUOUS
 62
     7
100
AcDbLine
 10
123.59266
 20
45.114884
 30
0.0
 11
123.590125
 21
45.114867
 31
0.0
  0
LINE
  5
241
330
10D
100
AcDbEntity
  8
0
  6
CONTINUOUS
 62
     7
100
AcDbLine
 10
123.590125
 20
45.114867
 30
0.0
 11
123.587589
 21
45.11485
 31
0.0
  0
LINE
  5
242
330
10D
100
AcDbEntity
  8
0
  6
CONTINUOUS
 62
     7
100
AcDbLine
 10
123.587589
 20
45.11485
 30
0.0
 11
123.585053
 21
45.114833
 31
0.0
  0
LINE
  5
243
330
10D
100
AcDbEntity
  8
0
  6
CONTINUOUS
 62
     7
100
AcDbLine
 10
123.585053
 20
45.114833
 30
0.0
 11
123.582515
 21
45.114817
 31
0.0
  0
LINE
  5
244
330
10D
100
AcDbEntity
  8
0
  6
CONTINUOUS
 62
     7
100
AcDbLine
 10
123.582515
 20
45.114817
 30
0.0
 11
123.579978
 21
45.114801
 31
0.0
  0
LINE
  5
245
330
10D
100
AcDbEntity
  8
0
  6
CONTINUOUS
 62
     7
100
AcDbLine
 10
123.579978
 20
45.114801
 30
0.0
 11
123.577439
 21
45.114785
 31
0.0
  0
LINE
  5
246
330
10D
100
AcDbEntity
  8
0
  6
CONTINUOUS
 62
     7
100
AcDbLine
 10
123.577439
 20
45.114785
 30
0.0
 11
123.572361
 21
45.114755
 31
0.0
  0
LINE
  5
247
330
10D
100
AcDbEntity
  8
0
  6
CONTINUOUS
 62
     7
100
AcDbLine
 10
123.572361
 20
45.114755
 30
0.0
 11
123.567281
 21
45.114726
 31
0.0
  0
LINE
  5
248
330
10D
100
AcDbEntity
  8
0
  6
CONTINUOUS
 62
     7
100
AcDbLine
 10
123.567281
 20
45.114726
 30
0.0
 11
123.562199
 21
45.114698
 31
0.0
  0
LINE
  5
249
330
10D
100
AcDbEntity
  8
0
  6
CONTINUOUS
 62
     7
100
AcDbLine
 10
123.562199
 20
45.114698
 30
0.0
 11
123.557115
 21
45.114671
 31
0.0
  0
LINE
  5
24A
330
10D
100
AcDbEntity
  8
0
  6
CONTINUOUS
 62
     7
100
AcDbLine
 10
123.557115
 20
45.114671
 30
0.0
 11
123.55203
 21
45.114644
 31
0.0
  0
LINE
  5
24B
330
10D
100
AcDbEntity
  8
0
  6
CONTINUOUS
 62
     7
100
AcDbLine
 10
123.55203
 20
45.114644
 30
0.0
 11
123.546944
 21
45.114619
 31
0.0
  0
LINE
  5
24C
330
10D
100
AcDbEntity
  8
0
  6
CONTINUOUS
 62
     7
100
AcDbLine
 10
123.546944
 20
45.114619
 30
0.0
 11
123.541857
 21
45.114593
 31
0.0
  0
LINE
  5
24D
330
10D
100
AcDbEntity
  8
0
  6
CONTINUOUS
 62
     7
100
AcDbLine
 10
123.541857
 20
45.114593
 30
0.0
 11
123.536769
 21
45.114569
 31
0.0
  0
LINE
  5
24E
330
10D
100
AcDbEntity
  8
0
  6
CONTINUOUS
 62
     7
100
AcDbLine
 10
123.536769
 20
45.114569
 30
0.0
 11
123.531681
 21
45.114544
 31
0.0
  0
LINE
  5
24F
330
10D
100
AcDbEntity
  8
0
  6
CONTINUOUS
 62
     7
100
AcDbLine
 10
123.531681
 20
45.114544
 30
0.0
 11
123.521503
 21
45.114496
 31
0.0
  0
ENDBLK
  5
10F
330
10D
100
AcDbEntity
  8
0
100
AcDbBlockEnd
  0
BLOCK
  5
251
330
250
100
AcDbEntity
  8
0
100
AcDbBlockBegin
  2
BLKF013
 70
     0
 71
     0
 10
0.0
 20
0.0
 30
0.0
  3
BLKF013
  1

  0
LINE
  5
254
330
250
100
AcDbEntity
  8
0
  6
CONTINUOUS
 62
     7
100
AcDbLine
 10
122.687636
 20
26.252108
 30
0.0
 11
122.687549
 21
26.2521
 31
0.0
  0
LINE
  5
255
330
250
100
AcDbEntity
  8
0
  6
CONTINUOUS
 62
     7
100
AcDbLine
 10
122.687549
 20
26.2521
 30
0.0
 11
122.703179
 21
26.253532
 31
0.0
  0
LINE
  5
256
330
250
100
AcDbEntity
  8
0
  6
CONTINUOUS
 62
     7
100
AcDbLine
 10
122.703179
 20
26.253532
 30
0.0
 11
122.750061
 21
26.25743
 31
0.0
  0
LINE
  5
257
330
250
100
AcDbEntity
  8
0
  6
CONTINUOUS
 62
     7
100
AcDbLine
 10
122.750061
 20
26.25743
 30
0.0
 11
122.937582
 21
26.270593
 31
0.0
  0
LINE
  5
258
330
250
100
AcDbEntity
  8
0
  6
CONTINUOUS
 62
     7
100
AcDbLine
 10
122.937582
 20
26.270593
 30
0.0
 11
123.208324
 21
26.284292
 31
0.0
  0
LINE
  5
259
330
250
100
AcDbEntity
  8
0
  6
CONTINUOUS
 62
     7
100
AcDbLine
 10
123.208324
 20
26.284292
 30
0.0
 11
123.359756
 21
26.288309
 31
0.0
  0
LINE
  5
25A
330
250
100
AcDbEntity
  8
0
  6
CONTINUOUS
 62
     7
100
AcDbLine
 10
123.359756
 20
26.288309
 30
0.0
 11
123.521894
 21
26.289705
 31
0.0
  0
LINE
  5
25B
330
250
100
AcDbEntity
  8
0
  6
CONTINUOUS
 62
     7
100
AcDbLine
 10
123.521894
 20
26.289705
 30
0.0
 11
123.68353
 21
26.288313
 31
0.0
  0
LINE
  5
25C
330
250
100
AcDbEntity
  8
0
  6
CONTINUOUS
 62
     7
100
AcDbLine
 10
123.68353
 20
26.288313
 30
0.0
 11
123.834753
 21
26.284284
 31
0.0
  0
LINE
  5
25D
330
250
100
AcDbEntity
  8
0
  6
CONTINUOUS
 62
     7
100
AcDbLine
 10
123.834753
 20
26.284284
 30
0.0
 11
124.105959
 21
26.27053
 31
0.0
  0
LINE
  5
25E
330
250
100
AcDbEntity
  8
0
  6
CONTINUOUS
 62
     7
100
AcDbLine
 10
124.105959
 20
26.27053
 30
0.0
 11
124.293134
 21
26.2574
 31
0.0
  0
LINE
  5
25F
330
250
100
AcDbEntity
  8
0
  6
CONTINUOUS
 62
     7
100
AcDbLine
 10
124.293134
 20
26.2574
 30
0.0
 11
124.339902
 21
26.253516
 31
0.0
  0
LINE
  5
260
330
250
100
AcDbEntity
  8
0
  6
CONTINUOUS
 62
     7
100
AcDbLine
 10
124.339902
 20
26.253516
 30
0.0
 11
124.355457
 21
26.2521
 31
0.0
  0
ENDBLK
  5
252
330
250
100
AcDbEntity
  8
0
100
AcDbBlockEnd
  0
BLOCK
  5
267
330
266
100
AcDbEntity
  8
0
100
AcDbBlockBegin
  2
BLKF014
 70
     0
 71
     0
 10
0.0
 20
0.0
 30
0.0
  3
BLKF014
  1

  0
LINE
  5
26A
330
266
100
AcDbEntity
  8
0
  6
CONTINUOUS
 62
     7
100
AcDbLine
 10
45.097893
 20
45.134962
 30
0.0
 11
45.120607
 21
45.133601
 31
0.0
  0
LINE
  5
26B
330
266
100
AcDbEntity
  8
0
  6
CONTINUOUS
 62
     7
100
AcDbLine
 10
45.120607
 20
45.133601
 30
0.0
 11
45.143502
 21
45.13226
 31
0.0
  0
LINE
  5
26C
330
266
100
AcDbEntity
  8
0
  6
CONTINUOUS
 62
     7
100
AcDbLine
 10
45.143502
 20
45.13226
 30
0.0
 11
45.155074
 21
45.131604
 31
0.0
  0
LINE
  5
26D
330
266
100
AcDbEntity
  8
0
  6
CONTINUOUS
 62
     7
100
AcDbLine
 10
45.155074
 20
45.131604
 30
0.0
 11
45.166759
 21
45.130961
 31
0.0
  0
LINE
  5
26E
330
266
100
AcDbEntity
  8
0
  6
CONTINUOUS
 62
     7
100
AcDbLine
 10
45.166759
 20
45.130961
 30
0.0
 11
45.178579
 21
45.130333
 31
0.0
  0
LINE
  5
26F
330
266
100
AcDbEntity
  8
0
  6
CONTINUOUS
 62
     7
100
AcDbLine
 10
45.178579
 20
45.130333
 30
0.0
 11
45.190558
 21
45.129724
 31
0.0
  0
LINE
  5
270
330
266
100
AcDbEntity
  8
0
  6
CONTINUOUS
 62
     7
100
AcDbLine
 10
45.190558
 20
45.129724
 30
0.0
 11
45.202717
 21
45.129136
 31
0.0
  0
LINE
  5
271
330
266
100
AcDbEntity
  8
0
  6
CONTINUOUS
 62
     7
100
AcDbLine
 10
45.202717
 20
45.129136
 30
0.0
 11
45.21508
 21
45.128571
 31
0.0
  0
LINE
  5
272
330
266
100
AcDbEntity
  8
0
  6
CONTINUOUS
 62
     7
100
AcDbLine
 10
45.21508
 20
45.128571
 30
0.0
 11
45.227669
 21
45.128032
 31
0.0
  0
LINE
  5
273
330
266
100
AcDbEntity
  8
0
  6
CONTINUOUS
 62
     7
100
AcDbLine
 10
45.227669
 20
45.128032
 30
0.0
 11
45.240507
 21
45.127521
 31
0.0
  0
LINE
  5
274
330
266
100
AcDbEntity
  8
0
  6
CONTINUOUS
 62
     7
100
AcDbLine
 10
45.240507
 20
45.127521
 30
0.0
 11
45.253616
 21
45.127042
 31
0.0
  0
LINE
  5
275
330
266
100
AcDbEntity
  8
0
  6
CONTINUOUS
 62
     7
100
AcDbLine
 10
45.253616
 20
45.127042
 30
0.0
 11
45.267019
 21
45.126597
 31
0.0
  0
LINE
  5
276
330
266
100
AcDbEntity
  8
0
  6
CONTINUOUS
 62
     7
100
AcDbLine
 10
45.267019
 20
45.126597
 30
0.0
 11
45.280738
 21
45.126188
 31
0.0
  0
LINE
  5
277
330
266
100
AcDbEntity
  8
0
  6
CONTINUOUS
 62
     7
100
AcDbLine
 10
45.280738
 20
45.126188
 30
0.0
 11
45.294797
 21
45.125818
 31
0.0
  0
LINE
  5
278
330
266
100
AcDbEntity
  8
0
  6
CONTINUOUS
 62
     7
100
AcDbLine
 10
45.294797
 20
45.125818
 30
0.0
 11
45.302974
 21
45.125623
 31
0.0
  0
ENDBLK
  5
268
330
266
100
AcDbEntity
  8
0
100
AcDbBlockEnd
  0
BLOCK
  5
27A
330
279
100
AcDbEntity
  8
0
100
AcDbBlockBegin
  2
BLKF015
 70
     0
 71
     0
 10
0.0
 20
0.0
 30
0.0
  3
BLKF015
  1

  0
LINE
  5
27D
330
279
100
AcDbEntity
  8
0
  6
CONTINUOUS
 62
     7
100
AcDbLine
 10
46.493697
 20
45.15188
 30
0.0
 11
46.496309
 21
45.152085
 31
0.0
  0
LINE
  5
27E
330
279
100
AcDbEntity
  8
0
  6
CONTINUOUS
 62
     7
100
AcDbLine
 10
46.496309
 20
45.152085
 30
0.0
 11
46.498136
 21
45.152218
 31
0.0
  0
LINE
  5
27F
330
279
100
AcDbEntity
  8
0
  6
CONTINUOUS
 62
     7
100
AcDbLine
 10
46.498136
 20
45.152218
 30
0.0
 11
46.488807
 21
45.151474
 31
0.0
  0
LINE
  5
280
330
279
100
AcDbEntity
  8
0
  6
CONTINUOUS
 62
     7
100
AcDbLine
 10
46.488807
 20
45.151474
 30
0.0
 11
46.471118
 21
45.150092
 31
0.0
  0
LINE
  5
281
330
279
100
AcDbEntity
  8
0
  6
CONTINUOUS
 62
     7
100
AcDbLine
 10
46.471118
 20
45.150092
 30
0.0
 11
46.460014
 21
45.149235
 31
0.0
  0
LINE
  5
282
330
279
100
AcDbEntity
  8
0
  6
CONTINUOUS
 62
     7
100
AcDbLine
 10
46.460014
 20
45.149235
 30
0.0
 11
46.447869
 21
45.148309
 31
0.0
  0
LINE
  5
283
330
279
100
AcDbEntity
  8
0
  6
CONTINUOUS
 62
     7
100
AcDbLine
 10
46.447869
 20
45.148309
 30
0.0
 11
46.434953
 21
45.147336
 31
0.0
  0
LINE
  5
284
330
279
100
AcDbEntity
  8
0
  6
CONTINUOUS
 62
     7
100
AcDbLine
 10
46.434953
 20
45.147336
 30
0.0
 11
46.421288
 21
45.146324
 31
0.0
  0
LINE
  5
285
330
279
100
AcDbEntity
  8
0
  6
CONTINUOUS
 62
     7
100
AcDbLine
 10
46.421288
 20
45.146324
 30
0.0
 11
46.406816
 21
45.145273
 31
0.0
  0
LINE
  5
286
330
279
100
AcDbEntity
  8
0
  6
CONTINUOUS
 62
     7
100
AcDbLine
 10
46.406816
 20
45.145273
 30
0.0
 11
46.39148
 21
45.144183
 31
0.0
  0
LINE
  5
287
330
279
100
AcDbEntity
  8
0
  6
CONTINUOUS
 62
     7
100
AcDbLine
 10
46.39148
 20
45.144183
 30
0.0
 11
46.38347
 21
45.143623
 31
0.0
  0
LINE
  5
288
330
279
100
AcDbEntity
  8
0
  6
CONTINUOUS
 62
     7
100
AcDbLine
 10
46.38347
 20
45.143623
 30
0.0
 11
46.375223
 21
45.143055
 31
0.0
  0
LINE
  5
289
330
279
100
AcDbEntity
  8
0
  6
CONTINUOUS
 62
     7
100
AcDbLine
 10
46.375223
 20
45.143055
 30
0.0
 11
46.366731
 21
45.142477
 31
0.0
  0
LINE
  5
28A
330
279
100
AcDbEntity
  8
0
  6
CONTINUOUS
 62
     7
100
AcDbLine
 10
46.366731
 20
45.142477
 30
0.0
 11
46.357988
 21
45.14189
 31
0.0
  0
LINE
  5
28B
330
279
100
AcDbEntity
  8
0
  6
CONTINUOUS
 62
     7
100
AcDbLine
 10
46.357988
 20
45.14189
 30
0.0
 11
46.348985
 21
45.141294
 31
0.0
  0
LINE
  5
28C
330
279
100
AcDbEntity
  8
0
  6
CONTINUOUS
 62
     7
100
AcDbLine
 10
46.348985
 20
45.141294
 30
0.0
 11
46.339717
 21
45.140688
 31
0.0
  0
LINE
  5
28D
330
279
100
AcDbEntity
  8
0
  6
CONTINUOUS
 62
     7
100
AcDbLine
 10
46.339717
 20
45.140688
 30
0.0
 11
46.330175
 21
45.140074
 31
0.0
  0
LINE
  5
28E
330
279
100
AcDbEntity
  8
0
  6
CONTINUOUS
 62
     7
100
AcDbLine
 10
46.330175
 20
45.140074
 30
0.0
 11
46.320353
 21
45.139451
 31
0.0
  0
LINE
  5
28F
330
279
100
AcDbEntity
  8
0
  6
CONTINUOUS
 62
     7
100
AcDbLine
 10
46.320353
 20
45.139451
 30
0.0
 11
46.309945
 21
45.138801
 31
0.0
  0
LINE
  5
290
330
279
100
AcDbEntity
  8
0
  6
CONTINUOUS
 62
     7
100
AcDbLine
 10
46.309945
 20
45.138801
 30
0.0
 11
46.29924
 21
45.138142
 31
0.0
  0
LINE
  5
291
330
279
100
AcDbEntity
  8
0
  6
CONTINUOUS
 62
     7
100
AcDbLine
 10
46.29924
 20
45.138142
 30
0.0
 11
46.288249
 21
45.137477
 31
0.0
  0
LINE
  5
292
330
279
100
AcDbEntity
  8
0
  6
CONTINUOUS
 62
     7
100
AcDbLine
 10
46.288249
 20
45.137477
 30
0.0
 11
46.276979
 21
45.136807
 31
0.0
  0
LINE
  5
293
330
279
100
AcDbEntity
  8
0
  6
CONTINUOUS
 62
     7
100
AcDbLine
 10
46.276979
 20
45.136807
 30
0.0
 11
46.26544
 21
45.136133
 31
0.0
  0
LINE
  5
294
330
279
100
AcDbEntity
  8
0
  6
CONTINUOUS
 62
     7
100
AcDbLine
 10
46.26544
 20
45.136133
 30
0.0
 11
46.253639
 21
45.135457
 31
0.0
  0
LINE
  5
295
330
279
100
AcDbEntity
  8
0
  6
CONTINUOUS
 62
     7
100
AcDbLine
 10
46.253639
 20
45.135457
 30
0.0
 11
46.241586
 21
45.134779
 31
0.0
  0
LINE
  5
296
330
279
100
AcDbEntity
  8
0
  6
CONTINUOUS
 62
     7
100
AcDbLine
 10
46.241586
 20
45.134779
 30
0.0
 11
46.22929
 21
45.134102
 31
0.0
  0
LINE
  5
297
330
279
100
AcDbEntity
  8
0
  6
CONTINUOUS
 62
     7
100
AcDbLine
 10
46.22929
 20
45.134102
 30
0.0
 11
46.216759
 21
45.133426
 31
0.0
  0
LINE
  5
298
330
279
100
AcDbEntity
  8
0
  6
CONTINUOUS
 62
     7
100
AcDbLine
 10
46.216759
 20
45.133426
 30
0.0
 11
46.204002
 21
45.132753
 31
0.0
  0
LINE
  5
299
330
279
100
AcDbEntity
  8
0
  6
CONTINUOUS
 62
     7
100
AcDbLine
 10
46.204002
 20
45.132753
 30
0.0
 11
46.191028
 21
45.132085
 31
0.0
  0
LINE
  5
29A
330
279
100
AcDbEntity
  8
0
  6
CONTINUOUS
 62
     7
100
AcDbLine
 10
46.191028
 20
45.132085
 30
0.0
 11
46.177845
 21
45.131422
 31
0.0
  0
LINE
  5
29B
330
279
100
AcDbEntity
  8
0
  6
CONTINUOUS
 62
     7
100
AcDbLine
 10
46.177845
 20
45.131422
 30
0.0
 11
46.164463
 21
45.130766
 31
0.0
  0
LINE
  5
29C
330
279
100
AcDbEntity
  8
0
  6
CONTINUOUS
 62
     7
100
AcDbLine
 10
46.164463
 20
45.130766
 30
0.0
 11
46.150889
 21
45.130119
 31
0.0
  0
LINE
  5
29D
330
279
100
AcDbEntity
  8
0
  6
CONTINUOUS
 62
     7
100
AcDbLine
 10
46.150889
 20
45.130119
 30
0.0
 11
46.137134
 21
45.129482
 31
0.0
  0
LINE
  5
29E
330
279
100
AcDbEntity
  8
0
  6
CONTINUOUS
 62
     7
100
AcDbLine
 10
46.137134
 20
45.129482
 30
0.0
 11
46.123204
 21
45.128856
 31
0.0
  0
LINE
  5
29F
330
279
100
AcDbEntity
  8
0
  6
CONTINUOUS
 62
     7
100
AcDbLine
 10
46.123204
 20
45.128856
 30
0.0
 11
46.108534
 21
45.128218
 31
0.0
  0
LINE
  5
2A0
330
279
100
AcDbEntity
  8
0
  6
CONTINUOUS
 62
     7
100
AcDbLine
 10
46.108534
 20
45.128218
 30
0.0
 11
46.093692
 21
45.127594
 31
0.0
  0
LINE
  5
2A1
330
279
100
AcDbEntity
  8
0
  6
CONTINUOUS
 62
     7
100
AcDbLine
 10
46.093692
 20
45.127594
 30
0.0
 11
46.078683
 21
45.126985
 31
0.0
  0
LINE
  5
2A2
330
279
100
AcDbEntity
  8
0
  6
CONTINUOUS
 62
     7
100
AcDbLine
 10
46.078683
 20
45.126985
 30
0.0
 11
46.063513
 21
45.126392
 31
0.0
  0
LINE
  5
2A3
330
279
100
AcDbEntity
  8
0
  6
CONTINUOUS
 62
     7
100
AcDbLine
 10
46.063513
 20
45.126392
 30
0.0
 11
46.048188
 21
45.125816
 31
0.0
  0
LINE
  5
2A4
330
279
100
AcDbEntity
  8
0
  6
CONTINUOUS
 62
     7
100
AcDbLine
 10
46.048188
 20
45.125816
 30
0.0
 11
46.032713
 21
45.125258
 31
0.0
  0
LINE
  5
2A5
330
279
100
AcDbEntity
  8
0
  6
CONTINUOUS
 62
     7
100
AcDbLine
 10
46.032713
 20
45.125258
 30
0.0
 11
46.017096
 21
45.124718
 31
0.0
  0
LINE
  5
2A6
330
279
100
AcDbEntity
  8
0
  6
CONTINUOUS
 62
     7
100
AcDbLine
 10
46.017096
 20
45.124718
 30
0.0
 11
46.00134
 21
45.124198
 31
0.0
  0
LINE
  5
2A7
330
279
100
AcDbEntity
  8
0
  6
CONTINUOUS
 62
     7
100
AcDbLine
 10
46.00134
 20
45.124198
 30
0.0
 11
45.985453
 21
45.123697
 31
0.0
  0
LINE
  5
2A8
330
279
100
AcDbEntity
  8
0
  6
CONTINUOUS
 62
     7
100
AcDbLine
 10
45.985453
 20
45.123697
 30
0.0
 11
45.969441
 21
45.123218
 31
0.0
  0
LINE
  5
2A9
330
279
100
AcDbEntity
  8
0
  6
CONTINUOUS
 62
     7
100
AcDbLine
 10
45.969441
 20
45.123218
 30
0.0
 11
45.953308
 21
45.122759
 31
0.0
  0
LINE
  5
2AA
330
279
100
AcDbEntity
  8
0
  6
CONTINUOUS
 62
     7
100
AcDbLine
 10
45.953308
 20
45.122759
 30
0.0
 11
45.937061
 21
45.122324
 31
0.0
  0
LINE
  5
2AB
330
279
100
AcDbEntity
  8
0
  6
CONTINUOUS
 62
     7
100
AcDbLine
 10
45.937061
 20
45.122324
 30
0.0
 11
45.920706
 21
45.121912
 31
0.0
  0
LINE
  5
2AC
330
279
100
AcDbEntity
  8
0
  6
CONTINUOUS
 62
     7
100
AcDbLine
 10
45.920706
 20
45.121912
 30
0.0
 11
45.904248
 21
45.121523
 31
0.0
  0
LINE
  5
2AD
330
279
100
AcDbEntity
  8
0
  6
CONTINUOUS
 62
     7
100
AcDbLine
 10
45.904248
 20
45.121523
 30
0.0
 11
45.895982
 21
45.121338
 31
0.0
  0
LINE
  5
2AE
330
279
100
AcDbEntity
  8
0
  6
CONTINUOUS
 62
     7
100
AcDbLine
 10
45.895982
 20
45.121338
 30
0.0
 11
45.887694
 21
45.12116
 31
0.0
  0
LINE
  5
2AF
330
279
100
AcDbEntity
  8
0
  6
CONTINUOUS
 62
     7
100
AcDbLine
 10
45.887694
 20
45.12116
 30
0.0
 11
45.879382
 21
45.120988
 31
0.0
  0
LINE
  5
2B0
330
279
100
AcDbEntity
  8
0
  6
CONTINUOUS
 62
     7
100
AcDbLine
 10
45.879382
 20
45.120988
 30
0.0
 11
45.871048
 21
45.120822
 31
0.0
  0
LINE
  5
2B1
330
279
100
AcDbEntity
  8
0
  6
CONTINUOUS
 62
     7
100
AcDbLine
 10
45.871048
 20
45.120822
 30
0.0
 11
45.862418
 21
45.120658
 31
0.0
  0
LINE
  5
2B2
330
279
100
AcDbEntity
  8
0
  6
CONTINUOUS
 62
     7
100
AcDbLine
 10
45.862418
 20
45.120658
 30
0.0
 11
45.853766
 21
45.120501
 31
0.0
  0
LINE
  5
2B3
330
279
100
AcDbEntity
  8
0
  6
CONTINUOUS
 62
     7
100
AcDbLine
 10
45.853766
 20
45.120501
 30
0.0
 11
45.845093
 21
45.120351
 31
0.0
  0
LINE
  5
2B4
330
279
100
AcDbEntity
  8
0
  6
CONTINUOUS
 62
     7
100
AcDbLine
 10
45.845093
 20
45.120351
 30
0.0
 11
45.836401
 21
45.120208
 31
0.0
  0
LINE
  5
2B5
330
279
100
AcDbEntity
  8
0
  6
CONTINUOUS
 62
     7
100
AcDbLine
 10
45.836401
 20
45.120208
 30
0.0
 11
45.82769
 21
45.120073
 31
0.0
  0
LINE
  5
2B6
330
279
100
AcDbEntity
  8
0
  6
CONTINUOUS
 62
     7
100
AcDbLine
 10
45.82769
 20
45.120073
 30
0.0
 11
45.818962
 21
45.119944
 31
0.0
  0
LINE
  5
2B7
330
279
100
AcDbEntity
  8
0
  6
CONTINUOUS
 62
     7
100
AcDbLine
 10
45.818962
 20
45.119944
 30
0.0
 11
45.810217
 21
45.119823
 31
0.0
  0
LINE
  5
2B8
330
279
100
AcDbEntity
  8
0
  6
CONTINUOUS
 62
     7
100
AcDbLine
 10
45.810217
 20
45.119823
 30
0.0
 11
45.801456
 21
45.119709
 31
0.0
  0
LINE
  5
2B9
330
279
100
AcDbEntity
  8
0
  6
CONTINUOUS
 62
     7
100
AcDbLine
 10
45.801456
 20
45.119709
 30
0.0
 11
45.792681
 21
45.119602
 31
0.0
  0
LINE
  5
2BA
330
279
100
AcDbEntity
  8
0
  6
CONTINUOUS
 62
     7
100
AcDbLine
 10
45.792681
 20
45.119602
 30
0.0
 11
45.783892
 21
45.119503
 31
0.0
  0
LINE
  5
2BB
330
279
100
AcDbEntity
  8
0
  6
CONTINUOUS
 62
     7
100
AcDbLine
 10
45.783892
 20
45.119503
 30
0.0
 11
45.77509
 21
45.119411
 31
0.0
  0
LINE
  5
2BC
330
279
100
AcDbEntity
  8
0
  6
CONTINUOUS
 62
     7
100
AcDbLine
 10
45.77509
 20
45.119411
 30
0.0
 11
45.766277
 21
45.119326
 31
0.0
  0
LINE
  5
2BD
330
279
100
AcDbEntity
  8
0
  6
CONTINUOUS
 62
     7
100
AcDbLine
 10
45.766277
 20
45.119326
 30
0.0
 11
45.757454
 21
45.119248
 31
0.0
  0
LINE
  5
2BE
330
279
100
AcDbEntity
  8
0
  6
CONTINUOUS
 62
     7
100
AcDbLine
 10
45.757454
 20
45.119248
 30
0.0
 11
45.748621
 21
45.119178
 31
0.0
  0
LINE
  5
2BF
330
279
100
AcDbEntity
  8
0
  6
CONTINUOUS
 62
     7
100
AcDbLine
 10
45.748621
 20
45.119178
 30
0.0
 11
45.739779
 21
45.119115
 31
0.0
  0
LINE
  5
2C0
330
279
100
AcDbEntity
  8
0
  6
CONTINUOUS
 62
     7
100
AcDbLine
 10
45.739779
 20
45.119115
 30
0.0
 11
45.73093
 21
45.11906
 31
0.0
  0
LINE
  5
2C1
330
279
100
AcDbEntity
  8
0
  6
CONTINUOUS
 62
     7
100
AcDbLine
 10
45.73093
 20
45.11906
 30
0.0
 11
45.722074
 21
45.119012
 31
0.0
  0
LINE
  5
2C2
330
279
100
AcDbEntity
  8
0
  6
CONTINUOUS
 62
     7
100
AcDbLine
 10
45.722074
 20
45.119012
 30
0.0
 11
45.713213
 21
45.118972
 31
0.0
  0
LINE
  5
2C3
330
279
100
AcDbEntity
  8
0
  6
CONTINUOUS
 62
     7
100
AcDbLine
 10
45.713213
 20
45.118972
 30
0.0
 11
45.704347
 21
45.118939
 31
0.0
  0
LINE
  5
2C4
330
279
100
AcDbEntity
  8
0
  6
CONTINUOUS
 62
     7
100
AcDbLine
 10
45.704347
 20
45.118939
 30
0.0
 11
45.695478
 21
45.118914
 31
0.0
  0
LINE
  5
2C5
330
279
100
AcDbEntity
  8
0
  6
CONTINUOUS
 62
     7
100
AcDbLine
 10
45.695478
 20
45.118914
 30
0.0
 11
45.686606
 21
45.118896
 31
0.0
  0
LINE
  5
2C6
330
279
100
AcDbEntity
  8
0
  6
CONTINUOUS
 62
     7
100
AcDbLine
 10
45.686606
 20
45.118896
 30
0.0
 11
45.677732
 21
45.118886
 31
0.0
  0
LINE
  5
2C7
330
279
100
AcDbEntity
  8
0
  6
CONTINUOUS
 62
     7
100
AcDbLine
 10
45.677732
 20
45.118886
 30
0.0
 11
45.668859
 21
45.118883
 31
0.0
  0
LINE
  5
2C8
330
279
100
AcDbEntity
  8
0
  6
CONTINUOUS
 62
     7
100
AcDbLine
 10
45.668859
 20
45.118883
 30
0.0
 11
45.659985
 21
45.118888
 31
0.0
  0
LINE
  5
2C9
330
279
100
AcDbEntity
  8
0
  6
CONTINUOUS
 62
     7
100
AcDbLine
 10
45.659985
 20
45.118888
 30
0.0
 11
45.651114
 21
45.1189
 31
0.0
  0
LINE
  5
2CA
330
279
100
AcDbEntity
  8
0
  6
CONTINUOUS
 62
     7
100
AcDbLine
 10
45.651114
 20
45.1189
 30
0.0
 11
45.642245
 21
45.118921
 31
0.0
  0
LINE
  5
2CB
330
279
100
AcDbEntity
  8
0
  6
CONTINUOUS
 62
     7
100
AcDbLine
 10
45.642245
 20
45.118921
 30
0.0
 11
45.633379
 21
45.118949
 31
0.0
  0
LINE
  5
2CC
330
279
100
AcDbEntity
  8
0
  6
CONTINUOUS
 62
     7
100
AcDbLine
 10
45.633379
 20
45.118949
 30
0.0
 11
45.624518
 21
45.118984
 31
0.0
  0
LINE
  5
2CD
330
279
100
AcDbEntity
  8
0
  6
CONTINUOUS
 62
     7
100
AcDbLine
 10
45.624518
 20
45.118984
 30
0.0
 11
45.615662
 21
45.119028
 31
0.0
  0
LINE
  5
2CE
330
279
100
AcDbEntity
  8
0
  6
CONTINUOUS
 62
     7
100
AcDbLine
 10
45.615662
 20
45.119028
 30
0.0
 11
45.606814
 21
45.119079
 31
0.0
  0
LINE
  5
2CF
330
279
100
AcDbEntity
  8
0
  6
CONTINUOUS
 62
     7
100
AcDbLine
 10
45.606814
 20
45.119079
 30
0.0
 11
45.597972
 21
45.119138
 31
0.0
  0
LINE
  5
2D0
330
279
100
AcDbEntity
  8
0
  6
CONTINUOUS
 62
     7
100
AcDbLine
 10
45.597972
 20
45.119138
 30
0.0
 11
45.58914
 21
45.119205
 31
0.0
  0
LINE
  5
2D1
330
279
100
AcDbEntity
  8
0
  6
CONTINUOUS
 62
     7
100
AcDbLine
 10
45.58914
 20
45.119205
 30
0.0
 11
45.580184
 21
45.11928
 31
0.0
  0
LINE
  5
2D2
330
279
100
AcDbEntity
  8
0
  6
CONTINUOUS
 62
     7
100
AcDbLine
 10
45.580184
 20
45.11928
 30
0.0
 11
45.571239
 21
45.119364
 31
0.0
  0
LINE
  5
2D3
330
279
100
AcDbEntity
  8
0
  6
CONTINUOUS
 62
     7
100
AcDbLine
 10
45.571239
 20
45.119364
 30
0.0
 11
45.562306
 21
45.119456
 31
0.0
  0
LINE
  5
2D4
330
279
100
AcDbEntity
  8
0
  6
CONTINUOUS
 62
     7
100
AcDbLine
 10
45.562306
 20
45.119456
 30
0.0
 11
45.553385
 21
45.119555
 31
0.0
  0
LINE
  5
2D5
330
279
100
AcDbEntity
  8
0
  6
CONTINUOUS
 62
     7
100
AcDbLine
 10
45.553385
 20
45.119555
 30
0.0
 11
45.544478
 21
45.119662
 31
0.0
  0
LINE
  5
2D6
330
279
100
AcDbEntity
  8
0
  6
CONTINUOUS
 62
     7
100
AcDbLine
 10
45.544478
 20
45.119662
 30
0.0
 11
45.535585
 21
45.119777
 31
0.0
  0
LINE
  5
2D7
330
279
100
AcDbEntity
  8
0
  6
CONTINUOUS
 62
     7
100
AcDbLine
 10
45.535585
 20
45.119777
 30
0.0
 11
45.526708
 21
45.1199
 31
0.0
  0
LINE
  5
2D8
330
279
100
AcDbEntity
  8
0
  6
CONTINUOUS
 62
     7
100
AcDbLine
 10
45.526708
 20
45.1199
 30
0.0
 11
45.517846
 21
45.120029
 31
0.0
  0
LINE
  5
2D9
330
279
100
AcDbEntity
  8
0
  6
CONTINUOUS
 62
     7
100
AcDbLine
 10
45.517846
 20
45.120029
 30
0.0
 11
45.509002
 21
45.120167
 31
0.0
  0
LINE
  5
2DA
330
279
100
AcDbEntity
  8
0
  6
CONTINUOUS
 62
     7
100
AcDbLine
 10
45.509002
 20
45.120167
 30
0.0
 11
45.500176
 21
45.120312
 31
0.0
  0
LINE
  5
2DB
330
279
100
AcDbEntity
  8
0
  6
CONTINUOUS
 62
     7
100
AcDbLine
 10
45.500176
 20
45.120312
 30
0.0
 11
45.491369
 21
45.120463
 31
0.0
  0
LINE
  5
2DC
330
279
100
AcDbEntity
  8
0
  6
CONTINUOUS
 62
     7
100
AcDbLine
 10
45.491369
 20
45.120463
 30
0.0
 11
45.482581
 21
45.120623
 31
0.0
  0
LINE
  5
2DD
330
279
100
AcDbEntity
  8
0
  6
CONTINUOUS
 62
     7
100
AcDbLine
 10
45.482581
 20
45.120623
 30
0.0
 11
45.473814
 21
45.120789
 31
0.0
  0
LINE
  5
2DE
330
279
100
AcDbEntity
  8
0
  6
CONTINUOUS
 62
     7
100
AcDbLine
 10
45.473814
 20
45.120789
 30
0.0
 11
45.465069
 21
45.120962
 31
0.0
  0
LINE
  5
2DF
330
279
100
AcDbEntity
  8
0
  6
CONTINUOUS
 62
     7
100
AcDbLine
 10
45.465069
 20
45.120962
 30
0.0
 11
45.456346
 21
45.121142
 31
0.0
  0
LINE
  5
2E0
330
279
100
AcDbEntity
  8
0
  6
CONTINUOUS
 62
     7
100
AcDbLine
 10
45.456346
 20
45.121142
 30
0.0
 11
45.447647
 21
45.121329
 31
0.0
  0
LINE
  5
2E1
330
279
100
AcDbEntity
  8
0
  6
CONTINUOUS
 62
     7
100
AcDbLine
 10
45.447647
 20
45.121329
 30
0.0
 11
45.438971
 21
45.121523
 31
0.0
  0
LINE
  5
2E2
330
279
100
AcDbEntity
  8
0
  6
CONTINUOUS
 62
     7
100
AcDbLine
 10
45.438971
 20
45.121523
 30
0.0
 11
45.430321
 21
45.121723
 31
0.0
  0
LINE
  5
2E3
330
279
100
AcDbEntity
  8
0
  6
CONTINUOUS
 62
     7
100
AcDbLine
 10
45.430321
 20
45.121723
 30
0.0
 11
45.421698
 21
45.12193
 31
0.0
  0
LINE
  5
2E4
330
279
100
AcDbEntity
  8
0
  6
CONTINUOUS
 62
     7
100
AcDbLine
 10
45.421698
 20
45.12193
 30
0.0
 11
45.413101
 21
45.122144
 31
0.0
  0
LINE
  5
2E5
330
279
100
AcDbEntity
  8
0
  6
CONTINUOUS
 62
     7
100
AcDbLine
 10
45.413101
 20
45.122144
 30
0.0
 11
45.404531
 21
45.122364
 31
0.0
  0
LINE
  5
2E6
330
279
100
AcDbEntity
  8
0
  6
CONTINUOUS
 62
     7
100
AcDbLine
 10
45.404531
 20
45.122364
 30
0.0
 11
45.395991
 21
45.12259
 31
0.0
  0
LINE
  5
2E7
330
279
100
AcDbEntity
  8
0
  6
CONTINUOUS
 62
     7
100
AcDbLine
 10
45.395991
 20
45.12259
 30
0.0
 11
45.38748
 21
45.122823
 31
0.0
  0
LINE
  5
2E8
330
279
100
AcDbEntity
  8
0
  6
CONTINUOUS
 62
     7
100
AcDbLine
 10
45.38748
 20
45.122823
 30
0.0
 11
45.379
 21
45.123062
 31
0.0
  0
LINE
  5
2E9
330
279
100
AcDbEntity
  8
0
  6
CONTINUOUS
 62
     7
100
AcDbLine
 10
45.379
 20
45.123062
 30
0.0
 11
45.370552
 21
45.123307
 31
0.0
  0
LINE
  5
2EA
330
279
100
AcDbEntity
  8
0
  6
CONTINUOUS
 62
     7
100
AcDbLine
 10
45.370552
 20
45.123307
 30
0.0
 11
45.362135
 21
45.123558
 31
0.0
  0
LINE
  5
2EB
330
279
100
AcDbEntity
  8
0
  6
CONTINUOUS
 62
     7
100
AcDbLine
 10
45.362135
 20
45.123558
 30
0.0
 11
45.353752
 21
45.123815
 31
0.0
  0
LINE
  5
2EC
330
279
100
AcDbEntity
  8
0
  6
CONTINUOUS
 62
     7
100
AcDbLine
 10
45.353752
 20
45.123815
 30
0.0
 11
45.345404
 21
45.124077
 31
0.0
  0
LINE
  5
2ED
330
279
100
AcDbEntity
  8
0
  6
CONTINUOUS
 62
     7
100
AcDbLine
 10
45.345404
 20
45.124077
 30
0.0
 11
45.33709
 21
45.124346
 31
0.0
  0
LINE
  5
2EE
330
279
100
AcDbEntity
  8
0
  6
CONTINUOUS
 62
     7
100
AcDbLine
 10
45.33709
 20
45.124346
 30
0.0
 11
45.328812
 21
45.12462
 31
0.0
  0
LINE
  5
2EF
330
279
100
AcDbEntity
  8
0
  6
CONTINUOUS
 62
     7
100
AcDbLine
 10
45.328812
 20
45.12462
 30
0.0
 11
45.320571
 21
45.1249
 31
0.0
  0
LINE
  5
2F0
330
279
100
AcDbEntity
  8
0
  6
CONTINUOUS
 62
     7
100
AcDbLine
 10
45.320571
 20
45.1249
 30
0.0
 11
45.312368
 21
45.125186
 31
0.0
  0
LINE
  5
2F1
330
279
100
AcDbEntity
  8
0
  6
CONTINUOUS
 62
     7
100
AcDbLine
 10
45.312368
 20
45.125186
 30
0.0
 11
45.296168
 21
45.125769
 31
0.0
  0
LINE
  5
2F2
330
279
100
AcDbEntity
  8
0
  6
CONTINUOUS
 62
     7
100
AcDbLine
 10
45.296168
 20
45.125769
 30
0.0
 11
45.280132
 21
45.126373
 31
0.0
  0
LINE
  5
2F3
330
279
100
AcDbEntity
  8
0
  6
CONTINUOUS
 62
     7
100
AcDbLine
 10
45.280132
 20
45.126373
 30
0.0
 11
45.264268
 21
45.126995
 31
0.0
  0
LINE
  5
2F4
330
279
100
AcDbEntity
  8
0
  6
CONTINUOUS
 62
     7
100
AcDbLine
 10
45.264268
 20
45.126995
 30
0.0
 11
45.248587
 21
45.127635
 31
0.0
  0
LINE
  5
2F5
330
279
100
AcDbEntity
  8
0
  6
CONTINUOUS
 62
     7
100
AcDbLine
 10
45.248587
 20
45.127635
 30
0.0
 11
45.233099
 21
45.12829
 31
0.0
  0
LINE
  5
2F6
330
279
100
AcDbEntity
  8
0
  6
CONTINUOUS
 62
     7
100
AcDbLine
 10
45.233099
 20
45.12829
 30
0.0
 11
45.217814
 21
45.128959
 31
0.0
  0
LINE
  5
2F7
330
279
100
AcDbEntity
  8
0
  6
CONTINUOUS
 62
     7
100
AcDbLine
 10
45.217814
 20
45.128959
 30
0.0
 11
45.202741
 21
45.12964
 31
0.0
  0
LINE
  5
2F8
330
279
100
AcDbEntity
  8
0
  6
CONTINUOUS
 62
     7
100
AcDbLine
 10
45.202741
 20
45.12964
 30
0.0
 11
45.18789
 21
45.130332
 31
0.0
  0
LINE
  5
2F9
330
279
100
AcDbEntity
  8
0
  6
CONTINUOUS
 62
     7
100
AcDbLine
 10
45.18789
 20
45.130332
 30
0.0
 11
45.173273
 21
45.131034
 31
0.0
  0
LINE
  5
2FA
330
279
100
AcDbEntity
  8
0
  6
CONTINUOUS
 62
     7
100
AcDbLine
 10
45.173273
 20
45.131034
 30
0.0
 11
45.158897
 21
45.131743
 31
0.0
  0
LINE
  5
2FB
330
279
100
AcDbEntity
  8
0
  6
CONTINUOUS
 62
     7
100
AcDbLine
 10
45.158897
 20
45.131743
 30
0.0
 11
45.144775
 21
45.132459
 31
0.0
  0
LINE
  5
2FC
330
279
100
AcDbEntity
  8
0
  6
CONTINUOUS
 62
     7
100
AcDbLine
 10
45.144775
 20
45.132459
 30
0.0
 11
45.130914
 21
45.133179
 31
0.0
  0
LINE
  5
2FD
330
279
100
AcDbEntity
  8
0
  6
CONTINUOUS
 62
     7
100
AcDbLine
 10
45.130914
 20
45.133179
 30
0.0
 11
45.117326
 21
45.133903
 31
0.0
  0
LINE
  5
2FE
330
279
100
AcDbEntity
  8
0
  6
CONTINUOUS
 62
     7
100
AcDbLine
 10
45.117326
 20
45.133903
 30
0.0
 11
45.10402
 21
45.134628
 31
0.0
  0
LINE
  5
2FF
330
279
100
AcDbEntity
  8
0
  6
CONTINUOUS
 62
     7
100
AcDbLine
 10
45.10402
 20
45.134628
 30
0.0
 11
45.091006
 21
45.135354
 31
0.0
  0
LINE
  5
300
330
279
100
AcDbEntity
  8
0
  6
CONTINUOUS
 62
     7
100
AcDbLine
 10
45.091006
 20
45.135354
 30
0.0
 11
45.078295
 21
45.136079
 31
0.0
  0
LINE
  5
301
330
279
100
AcDbEntity
  8
0
  6
CONTINUOUS
 62
     7
100
AcDbLine
 10
45.078295
 20
45.136079
 30
0.0
 11
45.066217
 21
45.136781
 31
0.0
  0
LINE
  5
302
330
279
100
AcDbEntity
  8
0
  6
CONTINUOUS
 62
     7
100
AcDbLine
 10
45.066217
 20
45.136781
 30
0.0
 11
45.054431
 21
45.137481
 31
0.0
  0
LINE
  5
303
330
279
100
AcDbEntity
  8
0
  6
CONTINUOUS
 62
     7
100
AcDbLine
 10
45.054431
 20
45.137481
 30
0.0
 11
45.042935
 21
45.138176
 31
0.0
  0
LINE
  5
304
330
279
100
AcDbEntity
  8
0
  6
CONTINUOUS
 62
     7
100
AcDbLine
 10
45.042935
 20
45.138176
 30
0.0
 11
45.031726
 21
45.138867
 31
0.0
  0
LINE
  5
305
330
279
100
AcDbEntity
  8
0
  6
CONTINUOUS
 62
     7
100
AcDbLine
 10
45.031726
 20
45.138867
 30
0.0
 11
45.0208
 21
45.139553
 31
0.0
  0
LINE
  5
306
330
279
100
AcDbEntity
  8
0
  6
CONTINUOUS
 62
     7
100
AcDbLine
 10
45.0208
 20
45.139553
 30
0.0
 11
45.010155
 21
45.140232
 31
0.0
  0
LINE
  5
307
330
279
100
AcDbEntity
  8
0
  6
CONTINUOUS
 62
     7
100
AcDbLine
 10
45.010155
 20
45.140232
 30
0.0
 11
44.999787
 21
45.140906
 31
0.0
  0
LINE
  5
308
330
279
100
AcDbEntity
  8
0
  6
CONTINUOUS
 62
     7
100
AcDbLine
 10
44.999787
 20
45.140906
 30
0.0
 11
44.989693
 21
45.141572
 31
0.0
  0
LINE
  5
309
330
279
100
AcDbEntity
  8
0
  6
CONTINUOUS
 62
     7
100
AcDbLine
 10
44.989693
 20
45.141572
 30
0.0
 11
44.979871
 21
45.142231
 31
0.0
  0
LINE
  5
30A
330
279
100
AcDbEntity
  8
0
  6
CONTINUOUS
 62
     7
100
AcDbLine
 10
44.979871
 20
45.142231
 30
0.0
 11
44.970316
 21
45.142881
 31
0.0
  0
LINE
  5
30B
330
279
100
AcDbEntity
  8
0
  6
CONTINUOUS
 62
     7
100
AcDbLine
 10
44.970316
 20
45.142881
 30
0.0
 11
44.961027
 21
45.143522
 31
0.0
  0
LINE
  5
30C
330
279
100
AcDbEntity
  8
0
  6
CONTINUOUS
 62
     7
100
AcDbLine
 10
44.961027
 20
45.143522
 30
0.0
 11
44.951999
 21
45.144154
 31
0.0
  0
LINE
  5
30D
330
279
100
AcDbEntity
  8
0
  6
CONTINUOUS
 62
     7
100
AcDbLine
 10
44.951999
 20
45.144154
 30
0.0
 11
44.94323
 21
45.144776
 31
0.0
  0
LINE
  5
30E
330
279
100
AcDbEntity
  8
0
  6
CONTINUOUS
 62
     7
100
AcDbLine
 10
44.94323
 20
45.144776
 30
0.0
 11
44.934717
 21
45.145386
 31
0.0
  0
LINE
  5
30F
330
279
100
AcDbEntity
  8
0
  6
CONTINUOUS
 62
     7
100
AcDbLine
 10
44.934717
 20
45.145386
 30
0.0
 11
44.918445
 21
45.146573
 31
0.0
  0
LINE
  5
310
330
279
100
AcDbEntity
  8
0
  6
CONTINUOUS
 62
     7
100
AcDbLine
 10
44.918445
 20
45.146573
 30
0.0
 11
44.903812
 21
45.14766
 31
0.0
  0
LINE
  5
311
330
279
100
AcDbEntity
  8
0
  6
CONTINUOUS
 62
     7
100
AcDbLine
 10
44.903812
 20
45.14766
 30
0.0
 11
44.890355
 21
45.148675
 31
0.0
  0
LINE
  5
312
330
279
100
AcDbEntity
  8
0
  6
CONTINUOUS
 62
     7
100
AcDbLine
 10
44.890355
 20
45.148675
 30
0.0
 11
44.878342
 21
45.149594
 31
0.0
  0
LINE
  5
313
330
279
100
AcDbEntity
  8
0
  6
CONTINUOUS
 62
     7
100
AcDbLine
 10
44.878342
 20
45.149594
 30
0.0
 11
44.868044
 21
45.150391
 31
0.0
  0
LINE
  5
314
330
279
100
AcDbEntity
  8
0
  6
CONTINUOUS
 62
     7
100
AcDbLine
 10
44.868044
 20
45.150391
 30
0.0
 11
44.853666
 21
45.151523
 31
0.0
  0
LINE
  5
315
330
279
100
AcDbEntity
  8
0
  6
CONTINUOUS
 62
     7
100
AcDbLine
 10
44.853666
 20
45.151523
 30
0.0
 11
44.849372
 21
45.15187
 31
0.0
  0
LINE
  5
316
330
279
100
AcDbEntity
  8
0
  6
CONTINUOUS
 62
     7
100
AcDbLine
 10
44.849372
 20
45.15187
 30
0.0
 11
44.854853
 21
45.151437
 31
0.0
  0
ENDBLK
  5
27B
330
279
100
AcDbEntity
  8
0
100
AcDbBlockEnd
  0
BLOCK
  5
318
330
317
100
AcDbEntity
  8
0
100
AcDbBlockBegin
  2
BLKF016
 70
     0
 71
     0
 10
0.0
 20
0.0
 30
0.0
  3
BLKF016
  1

  0
LINE
  5
31B
330
317
100
AcDbEntity
  8
0
  6
CONTINUOUS
 62
     7
100
AcDbLine
 10
45.097893
 20
26.269238
 30
0.0
 11
45.075339
 21
26.267867
 31
0.0
  0
LINE
  5
31C
330
317
100
AcDbEntity
  8
0
  6
CONTINUOUS
 62
     7
100
AcDbLine
 10
45.075339
 20
26.267867
 30
0.0
 11
45.05316
 21
26.266514
 31
0.0
  0
LINE
  5
31D
330
317
100
AcDbEntity
  8
0
  6
CONTINUOUS
 62
     7
100
AcDbLine
 10
45.05316
 20
26.266514
 30
0.0
 11
45.031729
 21
26.265199
 31
0.0
  0
LINE
  5
31E
330
317
100
AcDbEntity
  8
0
  6
CONTINUOUS
 62
     7
100
AcDbLine
 10
45.031729
 20
26.265199
 30
0.0
 11
45.011422
 21
26.263938
 31
0.0
  0
LINE
  5
31F
330
317
100
AcDbEntity
  8
0
  6
CONTINUOUS
 62
     7
100
AcDbLine
 10
45.011422
 20
26.263938
 30
0.0
 11
44.992612
 21
26.262751
 31
0.0
  0
LINE
  5
320
330
317
100
AcDbEntity
  8
0
  6
CONTINUOUS
 62
     7
100
AcDbLine
 10
44.992612
 20
26.262751
 30
0.0
 11
44.975674
 21
26.261657
 31
0.0
  0
LINE
  5
321
330
317
100
AcDbEntity
  8
0
  6
CONTINUOUS
 62
     7
100
AcDbLine
 10
44.975674
 20
26.261657
 30
0.0
 11
44.960983
 21
26.260673
 31
0.0
  0
LINE
  5
322
330
317
100
AcDbEntity
  8
0
  6
CONTINUOUS
 62
     7
100
AcDbLine
 10
44.960983
 20
26.260673
 30
0.0
 11
44.948913
 21
26.259818
 31
0.0
  0
LINE
  5
323
330
317
100
AcDbEntity
  8
0
  6
CONTINUOUS
 62
     7
100
AcDbLine
 10
44.948913
 20
26.259818
 30
0.0
 11
44.944213
 21
26.259467
 31
0.0
  0
ENDBLK
  5
319
330
317
100
AcDbEntity
  8
0
100
AcDbBlockEnd
  0
BLOCK
  5
325
330
324
100
AcDbEntity
  8
0
100
AcDbBlockBegin
  2
BLKF017
 70
     0
 71
     0
 10
0.0
 20
0.0
 30
0.0
  3
BLKF017
  1

  0
LINE
  5
328
330
324
100
AcDbEntity
  8
0
  6
CONTINUOUS
 62
     7
100
AcDbLine
 10
44.8576
 20
26.252985
 30
0.0
 11
44.857547
 21
26.252981
 31
0.0
  0
LINE
  5
329
330
324
100
AcDbEntity
  8
0
  6
CONTINUOUS
 62
     7
100
AcDbLine
 10
44.857547
 20
26.252981
 30
0.0
 11
44.868218
 21
26.25382
 31
0.0
  0
LINE
  5
32A
330
324
100
AcDbEntity
  8
0
  6
CONTINUOUS
 62
     7
100
AcDbLine
 10
44.868218
 20
26.25382
 30
0.0
 11
44.886746
 21
26.25525
 31
0.0
  0
LINE
  5
32B
330
324
100
AcDbEntity
  8
0
  6
CONTINUOUS
 62
     7
100
AcDbLine
 10
44.886746
 20
26.25525
 30
0.0
 11
44.898507
 21
26.256141
 31
0.0
  0
LINE
  5
32C
330
324
100
AcDbEntity
  8
0
  6
CONTINUOUS
 62
     7
100
AcDbLine
 10
44.898507
 20
26.256141
 30
0.0
 11
44.911694
 21
26.257125
 31
0.0
  0
LINE
  5
32D
330
324
100
AcDbEntity
  8
0
  6
CONTINUOUS
 62
     7
100
AcDbLine
 10
44.911694
 20
26.257125
 30
0.0
 11
44.926126
 21
26.258185
 31
0.0
  0
LINE
  5
32E
330
324
100
AcDbEntity
  8
0
  6
CONTINUOUS
 62
     7
100
AcDbLine
 10
44.926126
 20
26.258185
 30
0.0
 11
44.941624
 21
26.259302
 31
0.0
  0
LINE
  5
32F
330
324
100
AcDbEntity
  8
0
  6
CONTINUOUS
 62
     7
100
AcDbLine
 10
44.941624
 20
26.259302
 30
0.0
 11
44.958288
 21
26.260479
 31
0.0
  0
LINE
  5
330
330
324
100
AcDbEntity
  8
0
  6
CONTINUOUS
 62
     7
100
AcDbLine
 10
44.958288
 20
26.260479
 30
0.0
 11
44.975869
 21
26.26169
 31
0.0
  0
LINE
  5
331
330
324
100
AcDbEntity
  8
0
  6
CONTINUOUS
 62
     7
100
AcDbLine
 10
44.975869
 20
26.26169
 30
0.0
 11
44.994371
 21
26.262931
 31
0.0
  0
LINE
  5
332
330
324
100
AcDbEntity
  8
0
  6
CONTINUOUS
 62
     7
100
AcDbLine
 10
44.994371
 20
26.262931
 30
0.0
 11
45.013799
 21
26.264197
 31
0.0
  0
LINE
  5
333
330
324
100
AcDbEntity
  8
0
  6
CONTINUOUS
 62
     7
100
AcDbLine
 10
45.013799
 20
26.264197
 30
0.0
 11
45.034158
 21
26.265483
 31
0.0
  0
LINE
  5
334
330
324
100
AcDbEntity
  8
0
  6
CONTINUOUS
 62
     7
100
AcDbLine
 10
45.034158
 20
26.265483
 30
0.0
 11
45.05545
 21
26.266782
 31
0.0
  0
LINE
  5
335
330
324
100
AcDbEntity
  8
0
  6
CONTINUOUS
 62
     7
100
AcDbLine
 10
45.05545
 20
26.266782
 30
0.0
 11
45.066449
 21
26.267436
 31
0.0
  0
LINE
  5
336
330
324
100
AcDbEntity
  8
0
  6
CONTINUOUS
 62
     7
100
AcDbLine
 10
45.066449
 20
26.267436
 30
0.0
 11
45.077682
 21
26.268091
 31
0.0
  0
LINE
  5
337
330
324
100
AcDbEntity
  8
0
  6
CONTINUOUS
 62
     7
100
AcDbLine
 10
45.077682
 20
26.268091
 30
0.0
 11
45.089151
 21
26.268747
 31
0.0
  0
LINE
  5
338
330
324
100
AcDbEntity
  8
0
  6
CONTINUOUS
 62
     7
100
AcDbLine
 10
45.089151
 20
26.268747
 30
0.0
 11
45.100857
 21
26.269404
 31
0.0
  0
LINE
  5
339
330
324
100
AcDbEntity
  8
0
  6
CONTINUOUS
 62
     7
100
AcDbLine
 10
45.100857
 20
26.269404
 30
0.0
 11
45.113242
 21
26.270084
 31
0.0
  0
LINE
  5
33A
330
324
100
AcDbEntity
  8
0
  6
CONTINUOUS
 62
     7
100
AcDbLine
 10
45.113242
 20
26.270084
 30
0.0
 11
45.125874
 21
26.270762
 31
0.0
  0
LINE
  5
33B
330
324
100
AcDbEntity
  8
0
  6
CONTINUOUS
 62
     7
100
AcDbLine
 10
45.125874
 20
26.270762
 30
0.0
 11
45.138746
 21
26.271438
 31
0.0
  0
LINE
  5
33C
330
324
100
AcDbEntity
  8
0
  6
CONTINUOUS
 62
     7
100
AcDbLine
 10
45.138746
 20
26.271438
 30
0.0
 11
45.151849
 21
26.27211
 31
0.0
  0
LINE
  5
33D
330
324
100
AcDbEntity
  8
0
  6
CONTINUOUS
 62
     7
100
AcDbLine
 10
45.151849
 20
26.27211
 30
0.0
 11
45.165176
 21
26.272777
 31
0.0
  0
LINE
  5
33E
330
324
100
AcDbEntity
  8
0
  6
CONTINUOUS
 62
     7
100
AcDbLine
 10
45.165176
 20
26.272777
 30
0.0
 11
45.17872
 21
26.273437
 31
0.0
  0
LINE
  5
33F
330
324
100
AcDbEntity
  8
0
  6
CONTINUOUS
 62
     7
100
AcDbLine
 10
45.17872
 20
26.273437
 30
0.0
 11
45.192473
 21
26.27409
 31
0.0
  0
LINE
  5
340
330
324
100
AcDbEntity
  8
0
  6
CONTINUOUS
 62
     7
100
AcDbLine
 10
45.192473
 20
26.27409
 30
0.0
 11
45.206427
 21
26.274734
 31
0.0
  0
LINE
  5
341
330
324
100
AcDbEntity
  8
0
  6
CONTINUOUS
 62
     7
100
AcDbLine
 10
45.206427
 20
26.274734
 30
0.0
 11
45.220574
 21
26.275368
 31
0.0
  0
LINE
  5
342
330
324
100
AcDbEntity
  8
0
  6
CONTINUOUS
 62
     7
100
AcDbLine
 10
45.220574
 20
26.275368
 30
0.0
 11
45.234907
 21
26.275991
 31
0.0
  0
LINE
  5
343
330
324
100
AcDbEntity
  8
0
  6
CONTINUOUS
 62
     7
100
AcDbLine
 10
45.234907
 20
26.275991
 30
0.0
 11
45.249418
 21
26.276602
 31
0.0
  0
LINE
  5
344
330
324
100
AcDbEntity
  8
0
  6
CONTINUOUS
 62
     7
100
AcDbLine
 10
45.249418
 20
26.276602
 30
0.0
 11
45.2641
 21
26.277199
 31
0.0
  0
LINE
  5
345
330
324
100
AcDbEntity
  8
0
  6
CONTINUOUS
 62
     7
100
AcDbLine
 10
45.2641
 20
26.277199
 30
0.0
 11
45.278945
 21
26.277782
 31
0.0
  0
LINE
  5
346
330
324
100
AcDbEntity
  8
0
  6
CONTINUOUS
 62
     7
100
AcDbLine
 10
45.278945
 20
26.277782
 30
0.0
 11
45.293946
 21
26.278349
 31
0.0
  0
LINE
  5
347
330
324
100
AcDbEntity
  8
0
  6
CONTINUOUS
 62
     7
100
AcDbLine
 10
45.293946
 20
26.278349
 30
0.0
 11
45.309094
 21
26.278898
 31
0.0
  0
LINE
  5
348
330
324
100
AcDbEntity
  8
0
  6
CONTINUOUS
 62
     7
100
AcDbLine
 10
45.309094
 20
26.278898
 30
0.0
 11
45.324382
 21
26.27943
 31
0.0
  0
LINE
  5
349
330
324
100
AcDbEntity
  8
0
  6
CONTINUOUS
 62
     7
100
AcDbLine
 10
45.324382
 20
26.27943
 30
0.0
 11
45.340409
 21
26.279962
 31
0.0
  0
LINE
  5
34A
330
324
100
AcDbEntity
  8
0
  6
CONTINUOUS
 62
     7
100
AcDbLine
 10
45.340409
 20
26.279962
 30
0.0
 11
45.356572
 21
26.280472
 31
0.0
  0
LINE
  5
34B
330
324
100
AcDbEntity
  8
0
  6
CONTINUOUS
 62
     7
100
AcDbLine
 10
45.356572
 20
26.280472
 30
0.0
 11
45.372865
 21
26.28096
 31
0.0
  0
LINE
  5
34C
330
324
100
AcDbEntity
  8
0
  6
CONTINUOUS
 62
     7
100
AcDbLine
 10
45.372865
 20
26.28096
 30
0.0
 11
45.38928
 21
26.281426
 31
0.0
  0
LINE
  5
34D
330
324
100
AcDbEntity
  8
0
  6
CONTINUOUS
 62
     7
100
AcDbLine
 10
45.38928
 20
26.281426
 30
0.0
 11
45.40581
 21
26.281868
 31
0.0
  0
LINE
  5
34E
330
324
100
AcDbEntity
  8
0
  6
CONTINUOUS
 62
     7
100
AcDbLine
 10
45.40581
 20
26.281868
 30
0.0
 11
45.42245
 21
26.282286
 31
0.0
  0
LINE
  5
34F
330
324
100
AcDbEntity
  8
0
  6
CONTINUOUS
 62
     7
100
AcDbLine
 10
45.42245
 20
26.282286
 30
0.0
 11
45.439191
 21
26.28268
 31
0.0
  0
LINE
  5
350
330
324
100
AcDbEntity
  8
0
  6
CONTINUOUS
 62
     7
100
AcDbLine
 10
45.439191
 20
26.28268
 30
0.0
 11
45.456027
 21
26.283049
 31
0.0
  0
LINE
  5
351
330
324
100
AcDbEntity
  8
0
  6
CONTINUOUS
 62
     7
100
AcDbLine
 10
45.456027
 20
26.283049
 30
0.0
 11
45.472952
 21
26.283392
 31
0.0
  0
LINE
  5
352
330
324
100
AcDbEntity
  8
0
  6
CONTINUOUS
 62
     7
100
AcDbLine
 10
45.472952
 20
26.283392
 30
0.0
 11
45.489958
 21
26.283709
 31
0.0
  0
LINE
  5
353
330
324
100
AcDbEntity
  8
0
  6
CONTINUOUS
 62
     7
100
AcDbLine
 10
45.489958
 20
26.283709
 30
0.0
 11
45.507038
 21
26.283999
 31
0.0
  0
LINE
  5
354
330
324
100
AcDbEntity
  8
0
  6
CONTINUOUS
 62
     7
100
AcDbLine
 10
45.507038
 20
26.283999
 30
0.0
 11
45.524187
 21
26.284262
 31
0.0
  0
LINE
  5
355
330
324
100
AcDbEntity
  8
0
  6
CONTINUOUS
 62
     7
100
AcDbLine
 10
45.524187
 20
26.284262
 30
0.0
 11
45.541396
 21
26.284497
 31
0.0
  0
LINE
  5
356
330
324
100
AcDbEntity
  8
0
  6
CONTINUOUS
 62
     7
100
AcDbLine
 10
45.541396
 20
26.284497
 30
0.0
 11
45.558659
 21
26.284704
 31
0.0
  0
LINE
  5
357
330
324
100
AcDbEntity
  8
0
  6
CONTINUOUS
 62
     7
100
AcDbLine
 10
45.558659
 20
26.284704
 30
0.0
 11
45.575969
 21
26.284881
 31
0.0
  0
LINE
  5
358
330
324
100
AcDbEntity
  8
0
  6
CONTINUOUS
 62
     7
100
AcDbLine
 10
45.575969
 20
26.284881
 30
0.0
 11
45.59332
 21
26.285029
 31
0.0
  0
LINE
  5
359
330
324
100
AcDbEntity
  8
0
  6
CONTINUOUS
 62
     7
100
AcDbLine
 10
45.59332
 20
26.285029
 30
0.0
 11
45.611153
 21
26.285149
 31
0.0
  0
LINE
  5
35A
330
324
100
AcDbEntity
  8
0
  6
CONTINUOUS
 62
     7
100
AcDbLine
 10
45.611153
 20
26.285149
 30
0.0
 11
45.629013
 21
26.285237
 31
0.0
  0
LINE
  5
35B
330
324
100
AcDbEntity
  8
0
  6
CONTINUOUS
 62
     7
100
AcDbLine
 10
45.629013
 20
26.285237
 30
0.0
 11
45.646893
 21
26.285294
 31
0.0
  0
LINE
  5
35C
330
324
100
AcDbEntity
  8
0
  6
CONTINUOUS
 62
     7
100
AcDbLine
 10
45.646893
 20
26.285294
 30
0.0
 11
45.664785
 21
26.28532
 31
0.0
  0
LINE
  5
35D
330
324
100
AcDbEntity
  8
0
  6
CONTINUOUS
 62
     7
100
AcDbLine
 10
45.664785
 20
26.28532
 30
0.0
 11
45.682682
 21
26.285315
 31
0.0
  0
LINE
  5
35E
330
324
100
AcDbEntity
  8
0
  6
CONTINUOUS
 62
     7
100
AcDbLine
 10
45.682682
 20
26.285315
 30
0.0
 11
45.700575
 21
26.285278
 31
0.0
  0
LINE
  5
35F
330
324
100
AcDbEntity
  8
0
  6
CONTINUOUS
 62
     7
100
AcDbLine
 10
45.700575
 20
26.285278
 30
0.0
 11
45.718457
 21
26.285211
 31
0.0
  0
LINE
  5
360
330
324
100
AcDbEntity
  8
0
  6
CONTINUOUS
 62
     7
100
AcDbLine
 10
45.718457
 20
26.285211
 30
0.0
 11
45.736321
 21
26.285113
 31
0.0
  0
LINE
  5
361
330
324
100
AcDbEntity
  8
0
  6
CONTINUOUS
 62
     7
100
AcDbLine
 10
45.736321
 20
26.285113
 30
0.0
 11
45.754158
 21
26.284985
 31
0.0
  0
LINE
  5
362
330
324
100
AcDbEntity
  8
0
  6
CONTINUOUS
 62
     7
100
AcDbLine
 10
45.754158
 20
26.284985
 30
0.0
 11
45.77196
 21
26.284826
 31
0.0
  0
LINE
  5
363
330
324
100
AcDbEntity
  8
0
  6
CONTINUOUS
 62
     7
100
AcDbLine
 10
45.77196
 20
26.284826
 30
0.0
 11
45.789721
 21
26.284637
 31
0.0
  0
LINE
  5
364
330
324
100
AcDbEntity
  8
0
  6
CONTINUOUS
 62
     7
100
AcDbLine
 10
45.789721
 20
26.284637
 30
0.0
 11
45.807432
 21
26.284419
 31
0.0
  0
LINE
  5
365
330
324
100
AcDbEntity
  8
0
  6
CONTINUOUS
 62
     7
100
AcDbLine
 10
45.807432
 20
26.284419
 30
0.0
 11
45.825086
 21
26.28417
 31
0.0
  0
LINE
  5
366
330
324
100
AcDbEntity
  8
0
  6
CONTINUOUS
 62
     7
100
AcDbLine
 10
45.825086
 20
26.28417
 30
0.0
 11
45.842675
 21
26.283892
 31
0.0
  0
LINE
  5
367
330
324
100
AcDbEntity
  8
0
  6
CONTINUOUS
 62
     7
100
AcDbLine
 10
45.842675
 20
26.283892
 30
0.0
 11
45.860191
 21
26.283584
 31
0.0
  0
LINE
  5
368
330
324
100
AcDbEntity
  8
0
  6
CONTINUOUS
 62
     7
100
AcDbLine
 10
45.860191
 20
26.283584
 30
0.0
 11
45.877626
 21
26.283248
 31
0.0
  0
LINE
  5
369
330
324
100
AcDbEntity
  8
0
  6
CONTINUOUS
 62
     7
100
AcDbLine
 10
45.877626
 20
26.283248
 30
0.0
 11
45.89508
 21
26.282879
 31
0.0
  0
LINE
  5
36A
330
324
100
AcDbEntity
  8
0
  6
CONTINUOUS
 62
     7
100
AcDbLine
 10
45.89508
 20
26.282879
 30
0.0
 11
45.912436
 21
26.282483
 31
0.0
  0
LINE
  5
36B
330
324
100
AcDbEntity
  8
0
  6
CONTINUOUS
 62
     7
100
AcDbLine
 10
45.912436
 20
26.282483
 30
0.0
 11
45.929685
 21
26.282059
 31
0.0
  0
LINE
  5
36C
330
324
100
AcDbEntity
  8
0
  6
CONTINUOUS
 62
     7
100
AcDbLine
 10
45.929685
 20
26.282059
 30
0.0
 11
45.946818
 21
26.281609
 31
0.0
  0
LINE
  5
36D
330
324
100
AcDbEntity
  8
0
  6
CONTINUOUS
 62
     7
100
AcDbLine
 10
45.946818
 20
26.281609
 30
0.0
 11
45.963827
 21
26.281135
 31
0.0
  0
LINE
  5
36E
330
324
100
AcDbEntity
  8
0
  6
CONTINUOUS
 62
     7
100
AcDbLine
 10
45.963827
 20
26.281135
 30
0.0
 11
45.980703
 21
26.280636
 31
0.0
  0
LINE
  5
36F
330
324
100
AcDbEntity
  8
0
  6
CONTINUOUS
 62
     7
100
AcDbLine
 10
45.980703
 20
26.280636
 30
0.0
 11
45.997438
 21
26.280114
 31
0.0
  0
LINE
  5
370
330
324
100
AcDbEntity
  8
0
  6
CONTINUOUS
 62
     7
100
AcDbLine
 10
45.997438
 20
26.280114
 30
0.0
 11
46.014022
 21
26.279571
 31
0.0
  0
LINE
  5
371
330
324
100
AcDbEntity
  8
0
  6
CONTINUOUS
 62
     7
100
AcDbLine
 10
46.014022
 20
26.279571
 30
0.0
 11
46.030446
 21
26.279007
 31
0.0
  0
LINE
  5
372
330
324
100
AcDbEntity
  8
0
  6
CONTINUOUS
 62
     7
100
AcDbLine
 10
46.030446
 20
26.279007
 30
0.0
 11
46.046703
 21
26.278424
 31
0.0
  0
LINE
  5
373
330
324
100
AcDbEntity
  8
0
  6
CONTINUOUS
 62
     7
100
AcDbLine
 10
46.046703
 20
26.278424
 30
0.0
 11
46.062783
 21
26.277823
 31
0.0
  0
LINE
  5
374
330
324
100
AcDbEntity
  8
0
  6
CONTINUOUS
 62
     7
100
AcDbLine
 10
46.062783
 20
26.277823
 30
0.0
 11
46.078677
 21
26.277204
 31
0.0
  0
LINE
  5
375
330
324
100
AcDbEntity
  8
0
  6
CONTINUOUS
 62
     7
100
AcDbLine
 10
46.078677
 20
26.277204
 30
0.0
 11
46.094377
 21
26.276569
 31
0.0
  0
LINE
  5
376
330
324
100
AcDbEntity
  8
0
  6
CONTINUOUS
 62
     7
100
AcDbLine
 10
46.094377
 20
26.276569
 30
0.0
 11
46.109874
 21
26.275919
 31
0.0
  0
LINE
  5
377
330
324
100
AcDbEntity
  8
0
  6
CONTINUOUS
 62
     7
100
AcDbLine
 10
46.109874
 20
26.275919
 30
0.0
 11
46.125159
 21
26.275255
 31
0.0
  0
LINE
  5
378
330
324
100
AcDbEntity
  8
0
  6
CONTINUOUS
 62
     7
100
AcDbLine
 10
46.125159
 20
26.275255
 30
0.0
 11
46.140224
 21
26.274579
 31
0.0
  0
LINE
  5
379
330
324
100
AcDbEntity
  8
0
  6
CONTINUOUS
 62
     7
100
AcDbLine
 10
46.140224
 20
26.274579
 30
0.0
 11
46.154844
 21
26.273901
 31
0.0
  0
LINE
  5
37A
330
324
100
AcDbEntity
  8
0
  6
CONTINUOUS
 62
     7
100
AcDbLine
 10
46.154844
 20
26.273901
 30
0.0
 11
46.169237
 21
26.273213
 31
0.0
  0
LINE
  5
37B
330
324
100
AcDbEntity
  8
0
  6
CONTINUOUS
 62
     7
100
AcDbLine
 10
46.169237
 20
26.273213
 30
0.0
 11
46.183401
 21
26.272516
 31
0.0
  0
LINE
  5
37C
330
324
100
AcDbEntity
  8
0
  6
CONTINUOUS
 62
     7
100
AcDbLine
 10
46.183401
 20
26.272516
 30
0.0
 11
46.197331
 21
26.271811
 31
0.0
  0
LINE
  5
37D
330
324
100
AcDbEntity
  8
0
  6
CONTINUOUS
 62
     7
100
AcDbLine
 10
46.197331
 20
26.271811
 30
0.0
 11
46.211026
 21
26.271099
 31
0.0
  0
LINE
  5
37E
330
324
100
AcDbEntity
  8
0
  6
CONTINUOUS
 62
     7
100
AcDbLine
 10
46.211026
 20
26.271099
 30
0.0
 11
46.22448
 21
26.270382
 31
0.0
  0
LINE
  5
37F
330
324
100
AcDbEntity
  8
0
  6
CONTINUOUS
 62
     7
100
AcDbLine
 10
46.22448
 20
26.270382
 30
0.0
 11
46.237691
 21
26.26966
 31
0.0
  0
LINE
  5
380
330
324
100
AcDbEntity
  8
0
  6
CONTINUOUS
 62
     7
100
AcDbLine
 10
46.237691
 20
26.26966
 30
0.0
 11
46.250655
 21
26.268935
 31
0.0
  0
LINE
  5
381
330
324
100
AcDbEntity
  8
0
  6
CONTINUOUS
 62
     7
100
AcDbLine
 10
46.250655
 20
26.268935
 30
0.0
 11
46.263369
 21
26.268208
 31
0.0
  0
LINE
  5
382
330
324
100
AcDbEntity
  8
0
  6
CONTINUOUS
 62
     7
100
AcDbLine
 10
46.263369
 20
26.268208
 30
0.0
 11
46.275829
 21
26.26748
 31
0.0
  0
LINE
  5
383
330
324
100
AcDbEntity
  8
0
  6
CONTINUOUS
 62
     7
100
AcDbLine
 10
46.275829
 20
26.26748
 30
0.0
 11
46.288031
 21
26.266752
 31
0.0
  0
LINE
  5
384
330
324
100
AcDbEntity
  8
0
  6
CONTINUOUS
 62
     7
100
AcDbLine
 10
46.288031
 20
26.266752
 30
0.0
 11
46.299973
 21
26.266026
 31
0.0
  0
LINE
  5
385
330
324
100
AcDbEntity
  8
0
  6
CONTINUOUS
 62
     7
100
AcDbLine
 10
46.299973
 20
26.266026
 30
0.0
 11
46.31165
 21
26.265302
 31
0.0
  0
LINE
  5
386
330
324
100
AcDbEntity
  8
0
  6
CONTINUOUS
 62
     7
100
AcDbLine
 10
46.31165
 20
26.265302
 30
0.0
 11
46.323059
 21
26.264581
 31
0.0
  0
LINE
  5
387
330
324
100
AcDbEntity
  8
0
  6
CONTINUOUS
 62
     7
100
AcDbLine
 10
46.323059
 20
26.264581
 30
0.0
 11
46.334197
 21
26.263865
 31
0.0
  0
LINE
  5
388
330
324
100
AcDbEntity
  8
0
  6
CONTINUOUS
 62
     7
100
AcDbLine
 10
46.334197
 20
26.263865
 30
0.0
 11
46.34506
 21
26.263156
 31
0.0
  0
LINE
  5
389
330
324
100
AcDbEntity
  8
0
  6
CONTINUOUS
 62
     7
100
AcDbLine
 10
46.34506
 20
26.263156
 30
0.0
 11
46.365233
 21
26.261807
 31
0.0
  0
LINE
  5
38A
330
324
100
AcDbEntity
  8
0
  6
CONTINUOUS
 62
     7
100
AcDbLine
 10
46.365233
 20
26.261807
 30
0.0
 11
46.384235
 21
26.260501
 31
0.0
  0
LINE
  5
38B
330
324
100
AcDbEntity
  8
0
  6
CONTINUOUS
 62
     7
100
AcDbLine
 10
46.384235
 20
26.260501
 30
0.0
 11
46.401932
 21
26.259255
 31
0.0
  0
LINE
  5
38C
330
324
100
AcDbEntity
  8
0
  6
CONTINUOUS
 62
     7
100
AcDbLine
 10
46.401932
 20
26.259255
 30
0.0
 11
46.418192
 21
26.258084
 31
0.0
  0
LINE
  5
38D
330
324
100
AcDbEntity
  8
0
  6
CONTINUOUS
 62
     7
100
AcDbLine
 10
46.418192
 20
26.258084
 30
0.0
 11
46.432881
 21
26.257006
 31
0.0
  0
LINE
  5
38E
330
324
100
AcDbEntity
  8
0
  6
CONTINUOUS
 62
     7
100
AcDbLine
 10
46.432881
 20
26.257006
 30
0.0
 11
46.445866
 21
26.256037
 31
0.0
  0
LINE
  5
38F
330
324
100
AcDbEntity
  8
0
  6
CONTINUOUS
 62
     7
100
AcDbLine
 10
46.445866
 20
26.256037
 30
0.0
 11
46.466194
 21
26.25449
 31
0.0
  0
LINE
  5
390
330
324
100
AcDbEntity
  8
0
  6
CONTINUOUS
 62
     7
100
AcDbLine
 10
46.466194
 20
26.25449
 30
0.0
 11
46.483129
 21
26.253174
 31
0.0
  0
LINE
  5
391
330
324
100
AcDbEntity
  8
0
  6
CONTINUOUS
 62
     7
100
AcDbLine
 10
46.483129
 20
26.253174
 30
0.0
 11
46.489744
 21
26.252635
 31
0.0
  0
ENDBLK
  5
326
330
324
100
AcDbEntity
  8
0
100
AcDbBlockEnd
  0
BLOCK
  5
3A6
330
3A5
100
AcDbEntity
  8
0
100
AcDbBlockBegin
  2
BLKF018
 70
     0
 71
     0
 10
0.0
 20
0.0
 30
0.0
  3
BLKF018
  1

  0
LINE
  5
3A9
330
3A5
100
AcDbEntity
  8
CSLAYER2
  6
CONTINUOUS
 62
     3
100
AcDbLine
 10
46.571503
 20
51.716202
 30
0.0
 11
44.571503
 21
52.2521
 31
0.0
  0
LINE
  5
3AA
330
3A5
100
AcDbEntity
  8
CSLAYER2
  6
CONTINUOUS
 62
     3
100
AcDbLine
 10
44.571503
 20
52.2521
 30
0.0
 11
46.571503
 21
52.787998
 31
0.0
  0
LINE
  5
3AB
330
3A5
100
AcDbEntity
  8
CSLAYER2
  6
CONTINUOUS
 62
     3
100
AcDbLine
 10
44.571503
 20
52.2521
 30
0.0
 11
46.571503
 21
52.2521
 31
0.0
  0
LINE
  5
3AC
330
3A5
100
AcDbEntity
  8
CSLAYER2
  6
CONTINUOUS
 62
     3
100
AcDbLine
 10
64.571503
 20
52.787998
 30
0.0
 11
66.571503
 21
52.2521
 31
0.0
  0
LINE
  5
3AD
330
3A5
100
AcDbEntity
  8
CSLAYER2
  6
CONTINUOUS
 62
     3
100
AcDbLine
 10
66.571503
 20
52.2521
 30
0.0
 11
64.571503
 21
51.716202
 31
0.0
  0
LINE
  5
3AE
330
3A5
100
AcDbEntity
  8
CSLAYER2
  6
CONTINUOUS
 62
     3
100
AcDbLine
 10
66.571503
 20
52.2521
 30
0.0
 11
64.571503
 21
52.2521
 31
0.0
  0
LINE
  5
3AF
330
3A5
100
AcDbEntity
  8
CSLAYER2
  6
CONTINUOUS
 62
     3
100
AcDbLine
 10
44.571503
 20
44.9621
 30
0.0
 11
44.571503
 21
53.0521
 31
0.0
  0
LINE
  5
3B0
330
3A5
100
AcDbEntity
  8
CSLAYER2
  6
CONTINUOUS
 62
     3
100
AcDbLine
 10
66.571503
 20
45.2371
 30
0.0
 11
66.571503
 21
53.0521
 31
0.0
  0
LINE
  5
3B1
330
3A5
100
AcDbEntity
  8
CSLAYER2
  6
CONTINUOUS
 62
     3
100
AcDbLine
 10
44.571503
 20
52.2521
 30
0.0
 11
66.571503
 21
52.2521
 31
0.0
  0
TEXT
  5
3B2
330
3A5
100
AcDbEntity
  8
CSLAYER2
 62
     3
100
AcDbText
 10
52.775669
 20
53.119305
 30
0.0
 40
3.0
  1
22
 41
0.794595
  7
ED_VECTOR
 72
     5
 11
56.975669
 21
53.119305
 31
0.0
100
AcDbText
  0
ENDBLK
  5
3A7
330
3A5
100
AcDbEntity
  8
0
100
AcDbBlockEnd
  0
BLOCK
  5
3B4
330
3B3
100
AcDbEntity
  8
0
100
AcDbBlockBegin
  2
BLKF019
 70
     0
 71
     0
 10
0.0
 20
0.0
 30
0.0
  3
BLKF019
  1

  0
LINE
  5
3B7
330
3B3
100
AcDbEntity
  8
CSLAYER2
  6
CONTINUOUS
 62
     3
100
AcDbLine
 10
68.571503
 20
51.716202
 30
0.0
 11
66.571503
 21
52.2521
 31
0.0
  0
LINE
  5
3B8
330
3B3
100
AcDbEntity
  8
CSLAYER2
  6
CONTINUOUS
 62
     3
100
AcDbLine
 10
66.571503
 20
52.2521
 30
0.0
 11
68.571503
 21
52.787998
 31
0.0
  0
LINE
  5
3B9
330
3B3
100
AcDbEntity
  8
CSLAYER2
  6
CONTINUOUS
 62
     3
100
AcDbLine
 10
66.571503
 20
52.2521
 30
0.0
 11
68.571503
 21
52.2521
 31
0.0
  0
LINE
  5
3BA
330
3B3
100
AcDbEntity
  8
CSLAYER2
  6
CONTINUOUS
 62
     3
100
AcDbLine
 10
105.071503
 20
52.787998
 30
0.0
 11
107.071503
 21
52.2521
 31
0.0
  0
LINE
  5
3BB
330
3B3
100
AcDbEntity
  8
CSLAYER2
  6
CONTINUOUS
 62
     3
100
AcDbLine
 10
107.071503
 20
52.2521
 30
0.0
 11
105.071503
 21
51.716202
 31
0.0
  0
LINE
  5
3BC
330
3B3
100
AcDbEntity
  8
CSLAYER2
  6
CONTINUOUS
 62
     3
100
AcDbLine
 10
107.071503
 20
52.2521
 30
0.0
 11
105.071503
 21
52.2521
 31
0.0
  0
LINE
  5
3BD
330
3B3
100
AcDbEntity
  8
CSLAYER2
  6
CONTINUOUS
 62
     3
100
AcDbLine
 10
66.571503
 20
45.2371
 30
0.0
 11
66.571503
 21
53.0521
 31
0.0
  0
LINE
  5
3BE
330
3B3
100
AcDbEntity
  8
CSLAYER2
  6
CONTINUOUS
 62
     3
100
AcDbLine
 10
107.071503
 20
49.124895
 30
0.0
 11
107.071503
 21
53.0521
 31
0.0
  0
LINE
  5
3BF
330
3B3
100
AcDbEntity
  8
CSLAYER2
  6
CONTINUOUS
 62
     3
100
AcDbLine
 10
66.571503
 20
52.2521
 30
0.0
 11
107.071503
 21
52.2521
 31
0.0
  0
TEXT
  5
3C0
330
3B3
100
AcDbEntity
  8
CSLAYER2
 62
     3
100
AcDbText
 10
74.357811
 20
53.119305
 30
0.0
 40
3.0
  1
40.5
 41
0.877612
  7
ED_VECTOR
 72
     5
 11
82.757811
 21
53.119305
 31
0.0
100
AcDbText
  0
TEXT
  5
3C1
330
3B3
100
AcDbEntity
  8
CSLAYER2
 62
     3
100
AcDbText
 10
82.373001
 20
53.119305
 30
0.0
 40
3.0
  1
（クランプ範囲）
 41
0.834043
  7
ED_VECTOR
 72
     5
 11
99.173
 21
53.119305
 31
0.0
100
AcDbText
  0
ENDBLK
  5
3B5
330
3B3
100
AcDbEntity
  8
0
100
AcDbBlockEnd
  0
ENDSEC
  0
SECTION
  2
ENTITIES
  0
LINE
  5
6F
330
1F
100
AcDbEntity
  8
0
  6
CONTINUOUS
 62
     7
100
AcDbLine
 10
41.871503
 20
31.0021
 30
0.0
 11
41.971503
 21
31.1021
 31
0.0
  0
LINE
  5
70
330
1F
100
AcDbEntity
  8
0
  6
CONTINUOUS
 62
     7
100
AcDbLine
 10
41.971503
 20
40.3021
 30
0.0
 11
41.871503
 21
40.4021
 31
0.0
  0
LINE
  5
71
330
1F
100
AcDbEntity
  8
0
  6
CONTINUOUS
 62
     7
100
AcDbLine
 10
41.871503
 20
40.4021
 30
0.0
 11
41.5
 21
40.4021
 31
0.0
  0
LINE
  5
72
330
1F
100
AcDbEntity
  8
0
  6
CONTINUOUS
 62
     7
100
AcDbLine
 10
41.5
 20
31.0021
 30
0.0
 11
41.871503
 21
31.0021
 31
0.0
  0
LINE
  5
73
330
1F
100
AcDbEntity
  8
0
  6
CONTINUOUS
 62
     7
100
AcDbLine
 10
44.471503
 20
31.1021
 30
0.0
 11
44.571503
 21
31.1021
 31
0.0
  0
LINE
  5
74
330
1F
100
AcDbEntity
  8
0
  6
CONTINUOUS
 62
     7
100
AcDbLine
 10
41.971503
 20
31.1021
 30
0.0
 11
42.071503
 21
31.1021
 31
0.0
  0
LINE
  5
75
330
1F
100
AcDbEntity
  8
0
  6
CONTINUOUS
 62
     7
100
AcDbLine
 10
42.071503
 20
40.3021
 30
0.0
 11
41.971503
 21
40.3021
 31
0.0
  0
LINE
  5
76
330
1F
100
AcDbEntity
  8
0
  6
CONTINUOUS
 62
     7
100
AcDbLine
 10
44.571503
 20
40.3021
 30
0.0
 11
44.471503
 21
40.3021
 31
0.0
  0
ARC
  5
77
330
1F
100
AcDbEntity
  8
0
  6
CONTINUOUS
 62
     7
100
AcDbCircle
 10
20.2
 20
37.0021
 30
0.0
 40
0.2000000000000028
100
AcDbArc
 50
90.0
 51
180.0
  0
ARC
  5
78
330
1F
100
AcDbEntity
  8
0
  6
CONTINUOUS
 62
     7
100
AcDbCircle
 10
20.2
 20
34.4021
 30
0.0
 40
0.2000000000000028
100
AcDbArc
 50
180.0
 51
270.0
  0
LINE
  5
79
330
1F
100
AcDbEntity
  8
0
  6
CONTINUOUS
 62
     7
100
AcDbLine
 10
20.2
 20
34.2021
 30
0.0
 11
30.0
 21
34.2021
 31
0.0
  0
LINE
  5
7A
330
1F
100
AcDbEntity
  8
0
  6
CONTINUOUS
 62
     7
100
AcDbLine
 10
30.0
 20
37.2021
 30
0.0
 11
20.2
 21
37.2021
 31
0.0
  0
ARC
  5
7B
330
1F
100
AcDbEntity
  8
0
  6
CONTINUOUS
 62
     7
100
AcDbCircle
 10
40.7
 20
40.8021
 30
0.0
 40
0.8000000000000114
100
AcDbArc
 50
0.0
 51
90.0
  0
ARC
  5
7C
330
1F
100
AcDbEntity
  8
0
  6
CONTINUOUS
 62
     7
100
AcDbCircle
 10
40.7
 20
30.6021
 30
0.0
 40
0.8000000000000114
100
AcDbArc
 50
270.0
 51
360.0
  0
LINE
  5
7D
330
1F
100
AcDbEntity
  8
0
  6
CONTINUOUS
 62
     7
100
AcDbLine
 10
37.150403
 20
29.8021
 30
0.0
 11
40.7
 21
29.8021
 31
0.0
  0
LINE
  5
7E
330
1F
100
AcDbEntity
  8
0
  6
CONTINUOUS
 62
     7
100
AcDbLine
 10
40.7
 20
41.6021
 30
0.0
 11
37.150403
 21
41.6021
 31
0.0
  0
LINE
  5
7F
330
1F
100
AcDbEntity
  8
0
  6
CONTINUOUS
 62
     7
100
AcDbLine
 10
33.558846
 20
29.8021
 30
0.0
 11
33.850403
 21
29.8021
 31
0.0
  0
LINE
  5
80
330
1F
100
AcDbEntity
  8
0
  6
CONTINUOUS
 62
     7
100
AcDbLine
 10
33.850403
 20
41.6021
 30
0.0
 11
33.558846
 21
41.6021
 31
0.0
  0
LINE
  5
81
330
1F
100
AcDbEntity
  8
0
  6
CONTINUOUS
 62
     7
100
AcDbLine
 10
33.850403
 20
29.8021
 30
0.0
 11
34.0
 21
29.9521
 31
0.0
  0
LINE
  5
82
330
1F
100
AcDbEntity
  8
0
  6
CONTINUOUS
 62
     7
100
AcDbLine
 10
34.0
 20
41.452101
 30
0.0
 11
33.850403
 21
41.6021
 31
0.0
  0
ARC
  5
83
330
1F
100
AcDbEntity
  8
0
  6
CONTINUOUS
 62
     7
100
AcDbCircle
 10
33.558846
 20
40.6021
 30
0.0
 40
1.0
100
AcDbArc
 50
90.0
 51
120.0
  0
ARC
  5
84
330
1F
100
AcDbEntity
  8
0
  6
CONTINUOUS
 62
     7
100
AcDbCircle
 10
33.558846
 20
30.8021
 30
0.0
 40
1.0
100
AcDbArc
 50
240.0
 51
270.0
  0
LINE
  5
85
330
1F
100
AcDbEntity
  8
0
  6
CONTINUOUS
 62
     7
100
AcDbLine
 10
37.150403
 20
41.6021
 30
0.0
 11
37.0
 21
41.452101
 31
0.0
  0
LINE
  5
86
330
1F
100
AcDbEntity
  8
0
  6
CONTINUOUS
 62
     7
100
AcDbLine
 10
37.0
 20
29.9521
 30
0.0
 11
37.150403
 21
29.8021
 31
0.0
  0
LINE
  5
87
330
1F
100
AcDbEntity
  8
0
  6
CONTINUOUS
 62
     7
100
AcDbLine
 10
33.058846
 20
41.468126
 30
0.0
 11
30.5
 21
39.990775
 31
0.0
  0
LINE
  5
88
330
1F
100
AcDbEntity
  8
0
  6
CONTINUOUS
 62
     7
100
AcDbLine
 10
30.5
 20
31.413425
 30
0.0
 11
33.058846
 21
29.936075
 31
0.0
  0
ARC
  5
89
330
1F
100
AcDbEntity
  8
0
  6
CONTINUOUS
 62
     7
100
AcDbCircle
 10
31.0
 20
32.27945
 30
0.0
 40
1.0
100
AcDbArc
 50
180.0
 51
240.0
  0
ARC
  5
8A
330
1F
100
AcDbEntity
  8
0
  6
CONTINUOUS
 62
     7
100
AcDbCircle
 10
31.0
 20
39.12475
 30
0.0
 40
1.000000000000008
100
AcDbArc
 50
120.0
 51
180.0
  0
ARC
  5
8B
330
1F
100
AcDbEntity
  8
0
  6
CONTINUOUS
 62
     7
100
AcDbCircle
 10
125.171503
 20
44.2021
 30
0.0
 40
0.5
100
AcDbArc
 50
0.0
 51
180.0
  0
ARC
  5
8C
330
1F
100
AcDbEntity
  8
0
  6
CONTINUOUS
 62
     7
100
AcDbCircle
 10
125.171503
 20
27.2021
 30
0.0
 40
0.5
100
AcDbArc
 50
180.0
 51
360.0
  0
LINE
  5
8D
330
1F
100
AcDbEntity
  8
0
  6
CONTINUOUS
 62
     7
100
AcDbLine
 10
125.671503
 20
27.2021
 30
0.0
 11
125.671503
 21
44.2021
 31
0.0
  0
LINE
  5
8E
330
1F
100
AcDbEntity
  8
0
  6
CONTINUOUS
 62
     7
100
AcDbLine
 10
122.471503
 20
45.1521
 30
0.0
 11
122.371503
 21
45.0521
 31
0.0
  0
LINE
  5
8F
330
1F
100
AcDbEntity
  8
0
  6
CONTINUOUS
 62
     7
100
AcDbLine
 10
122.371503
 20
26.3521
 30
0.0
 11
122.471503
 21
26.2521
 31
0.0
  0
LINE
  5
90
330
1F
100
AcDbEntity
  8
0
  6
CONTINUOUS
 62
     7
100
AcDbLine
 10
124.571503
 20
26.2521
 30
0.0
 11
124.671503
 21
26.3521
 31
0.0
  0
LINE
  5
91
330
1F
100
AcDbEntity
  8
0
  6
CONTINUOUS
 62
     7
100
AcDbLine
 10
124.671503
 20
45.0521
 30
0.0
 11
124.571503
 21
45.1521
 31
0.0
  0
LINE
  5
92
330
1F
100
AcDbEntity
  8
0
  6
CONTINUOUS
 62
     7
100
AcDbLine
 10
124.355457
 20
26.2521
 30
0.0
 11
124.571503
 21
26.2521
 31
0.0
  0
LINE
  5
93
330
1F
100
AcDbEntity
  8
0
  6
CONTINUOUS
 62
     7
100
AcDbLine
 10
122.471503
 20
26.2521
 30
0.0
 11
122.687636
 21
26.2521
 31
0.0
  0
LINE
  5
94
330
1F
100
AcDbEntity
  8
0
  6
CONTINUOUS
 62
     7
100
AcDbLine
 10
122.687563
 20
45.1521
 30
0.0
 11
122.471503
 21
45.1521
 31
0.0
  0
LINE
  5
95
330
1F
100
AcDbEntity
  8
0
  6
CONTINUOUS
 62
     7
100
AcDbLine
 10
124.571503
 20
45.1521
 30
0.0
 11
124.355417
 21
45.1521
 31
0.0
  0
LINE
  5
96
330
1F
100
AcDbEntity
  8
0
  6
CONTINUOUS
 62
     7
100
AcDbLine
 10
125.971503
 20
27.2521
 30
0.0
 11
128.471503
 21
27.2521
 31
0.0
  0
LINE
  5
97
330
1F
100
AcDbEntity
  8
0
  6
CONTINUOUS
 62
     7
100
AcDbLine
 10
128.471503
 20
44.1521
 30
0.0
 11
125.971503
 21
44.1521
 31
0.0
  0
LINE
  5
98
330
1F
100
AcDbEntity
  8
0
  6
CONTINUOUS
 62
     7
100
AcDbLine
 10
128.471503
 20
27.2521
 30
0.0
 11
128.771503
 21
27.5521
 31
0.0
  0
LINE
  5
99
330
1F
100
AcDbEntity
  8
0
  6
CONTINUOUS
 62
     7
100
AcDbLine
 10
128.771503
 20
43.8521
 30
0.0
 11
128.471503
 21
44.1521
 31
0.0
  0
LINE
  5
9A
330
1F
100
AcDbEntity
  8
0
  6
CONTINUOUS
 62
     7
100
AcDbLine
 10
132.571503
 20
27.5521
 30
0.0
 11
132.771503
 21
27.7521
 31
0.0
  0
LINE
  5
9B
330
1F
100
AcDbEntity
  8
0
  6
CONTINUOUS
 62
     7
100
AcDbLine
 10
132.771503
 20
43.6521
 30
0.0
 11
132.571503
 21
43.8521
 31
0.0
  0
LINE
  5
9C
330
1F
100
AcDbEntity
  8
0
  6
CONTINUOUS
 62
     7
100
AcDbLine
 10
128.771503
 20
27.5521
 30
0.0
 11
132.571503
 21
27.5521
 31
0.0
  0
LINE
  5
9D
330
1F
100
AcDbEntity
  8
0
  6
CONTINUOUS
 62
     7
100
AcDbLine
 10
132.571503
 20
43.8521
 30
0.0
 11
128.771503
 21
43.8521
 31
0.0
  0
LINE
  5
9E
330
1F
100
AcDbEntity
  8
0
  6
CONTINUOUS
 62
     7
100
AcDbLine
 10
125.671503
 20
27.7021
 30
0.0
 11
125.971503
 21
27.7021
 31
0.0
  0
LINE
  5
9F
330
1F
100
AcDbEntity
  8
0
  6
CONTINUOUS
 62
     7
100
AcDbLine
 10
125.971503
 20
43.7021
 30
0.0
 11
125.671503
 21
43.7021
 31
0.0
  0
LINE
  5
A0
330
1F
100
AcDbEntity
  8
0
  6
CONTINUOUS
 62
     7
100
AcDbLine
 10
46.671503
 20
26.2521
 30
0.0
 11
46.771503
 21
26.3521
 31
0.0
  0
LINE
  5
A1
330
1F
100
AcDbEntity
  8
0
  6
CONTINUOUS
 62
     7
100
AcDbLine
 10
46.771503
 20
45.0521
 30
0.0
 11
46.671503
 21
45.1521
 31
0.0
  0
LINE
  5
A2
330
1F
100
AcDbEntity
  8
0
  6
CONTINUOUS
 62
     7
100
AcDbLine
 10
46.489744
 20
26.2521
 30
0.0
 11
46.671503
 21
26.2521
 31
0.0
  0
LINE
  5
A3
330
1F
100
AcDbEntity
  8
0
  6
CONTINUOUS
 62
     7
100
AcDbLine
 10
44.771503
 20
26.2521
 30
0.0
 11
44.8576
 21
26.2521
 31
0.0
  0
LINE
  5
A4
330
1F
100
AcDbEntity
  8
0
  6
CONTINUOUS
 62
     7
100
AcDbLine
 10
44.854853
 20
45.1521
 30
0.0
 11
44.771503
 21
45.1521
 31
0.0
  0
LINE
  5
A5
330
1F
100
AcDbEntity
  8
0
  6
CONTINUOUS
 62
     7
100
AcDbLine
 10
46.671503
 20
45.1521
 30
0.0
 11
46.493697
 21
45.1521
 31
0.0
  0
LINE
  5
A6
330
1F
100
AcDbEntity
  8
0
  6
CONTINUOUS
 62
     7
100
AcDbLine
 10
44.771503
 20
45.1521
 30
0.0
 11
44.571503
 21
44.9521
 31
0.0
  0
LINE
  5
A7
330
1F
100
AcDbEntity
  8
0
  6
CONTINUOUS
 62
     7
100
AcDbLine
 10
44.571503
 20
26.4521
 30
0.0
 11
44.771503
 21
26.2521
 31
0.0
  0
LINE
  5
A8
330
1F
100
AcDbEntity
  8
0
  6
CONTINUOUS
 62
     7
100
AcDbLine
 10
46.771503
 20
28.2021
 30
0.0
 11
46.971503
 21
28.2021
 31
0.0
  0
LINE
  5
A9
330
1F
100
AcDbEntity
  8
0
  6
CONTINUOUS
 62
     7
100
AcDbLine
 10
46.971503
 20
43.2021
 30
0.0
 11
46.771503
 21
43.2021
 31
0.0
  0
LINE
  5
AA
330
1F
100
AcDbEntity
  8
0
  6
CONTINUOUS
 62
     7
100
AcDbLine
 10
50.971503
 20
26.1771
 30
0.0
 11
107.071503
 21
26.1771
 31
0.0
  0
LINE
  5
AB
330
1F
100
AcDbEntity
  8
0
  6
CONTINUOUS
 62
     7
100
AcDbLine
 10
107.071503
 20
45.2271
 30
0.0
 11
50.971503
 21
45.2271
 31
0.0
  0
LINE
  5
AC
330
1F
100
AcDbEntity
  8
0
  6
CONTINUOUS
 62
     7
100
AcDbLine
 10
47.699584
 20
26.1871
 30
0.0
 11
50.971503
 21
26.1871
 31
0.0
  0
LINE
  5
AD
330
1F
100
AcDbEntity
  8
0
  6
CONTINUOUS
 62
     7
100
AcDbLine
 10
50.971503
 20
45.2171
 30
0.0
 11
47.699584
 21
45.2171
 31
0.0
  0
LINE
  5
AE
330
1F
100
AcDbEntity
  8
0
  6
CONTINUOUS
 62
     7
100
AcDbLine
 10
47.699584
 20
45.2171
 30
0.0
 11
46.971503
 21
44.9521
 31
0.0
  0
LINE
  5
AF
330
1F
100
AcDbEntity
  8
0
  6
CONTINUOUS
 62
     7
100
AcDbLine
 10
46.971503
 20
26.4521
 30
0.0
 11
47.699584
 21
26.1871
 31
0.0
  0
LINE
  5
B0
330
1F
100
AcDbEntity
  8
0
  6
CONTINUOUS
 62
     7
100
AcDbLine
 10
107.071503
 20
26.1871
 30
0.0
 11
122.271503
 21
26.1871
 31
0.0
  0
LINE
  5
B1
330
1F
100
AcDbEntity
  8
0
  6
CONTINUOUS
 62
     7
100
AcDbLine
 10
122.271503
 20
45.2171
 30
0.0
 11
107.071503
 21
45.2171
 31
0.0
  0
LINE
  5
B2
330
1F
100
AcDbEntity
  8
0
  6
CONTINUOUS
 62
     7
100
AcDbLine
 10
122.271503
 20
26.1871
 30
0.0
 11
122.371503
 21
26.2871
 31
0.0
  0
LINE
  5
B3
330
1F
100
AcDbEntity
  8
0
  6
CONTINUOUS
 62
     7
100
AcDbLine
 10
122.371503
 20
45.1171
 30
0.0
 11
122.271503
 21
45.2171
 31
0.0
  0
LINE
  5
B4
330
1F
100
AcDbEntity
  8
0
  6
CONTINUOUS
 62
     7
100
AcDbLine
 10
41.971503
 20
31.1021
 30
0.0
 11
41.971503
 21
40.3021
 31
0.0
  0
LINE
  5
B5
330
1F
100
AcDbEntity
  8
0
  6
CONTINUOUS
 62
     7
100
AcDbLine
 10
44.471503
 20
31.7021
 30
0.0
 11
42.071503
 21
31.7021
 31
0.0
  0
LINE
  5
B6
330
1F
100
AcDbEntity
  8
0
  6
CONTINUOUS
 62
     7
100
AcDbLine
 10
42.071503
 20
31.7021
 30
0.0
 11
42.071503
 21
31.1021
 31
0.0
  0
LINE
  5
B7
330
1F
100
AcDbEntity
  8
0
  6
CONTINUOUS
 62
     7
100
AcDbLine
 10
44.471503
 20
31.7021
 30
0.0
 11
44.471503
 21
31.1021
 31
0.0
  0
LINE
  5
B8
330
1F
100
AcDbEntity
  8
0
  6
CONTINUOUS
 62
     7
100
AcDbLine
 10
42.071503
 20
40.3021
 30
0.0
 11
42.071503
 21
39.7021
 31
0.0
  0
LINE
  5
B9
330
1F
100
AcDbEntity
  8
0
  6
CONTINUOUS
 62
     7
100
AcDbLine
 10
44.471503
 20
39.7021
 30
0.0
 11
42.071503
 21
39.7021
 31
0.0
  0
LINE
  5
BA
330
1F
100
AcDbEntity
  8
0
  6
CONTINUOUS
 62
     7
100
AcDbLine
 10
44.471503
 20
40.3021
 30
0.0
 11
44.471503
 21
39.7021
 31
0.0
  0
LINE
  5
BB
330
1F
100
AcDbEntity
  8
0
  6
CONTINUOUS
 62
     7
100
AcDbLine
 10
20.0
 20
34.4021
 30
0.0
 11
20.0
 21
37.0021
 31
0.0
  0
LINE
  5
BC
330
1F
100
AcDbEntity
  8
0
  6
CONTINUOUS
 62
     7
100
AcDbLine
 10
41.5
 20
40.8021
 30
0.0
 11
41.5
 21
30.6021
 31
0.0
  0
LINE
  5
BD
330
1F
100
AcDbEntity
  8
0
  6
CONTINUOUS
 62
     7
100
AcDbLine
 10
34.0
 20
37.379153
 30
0.0
 11
34.0
 21
41.2021
 31
0.0
  0
LINE
  5
BE
330
1F
100
AcDbEntity
  8
0
  6
CONTINUOUS
 62
     7
100
AcDbLine
 10
34.0
 20
34.025047
 30
0.0
 11
34.0
 21
37.379153
 31
0.0
  0
LINE
  5
BF
330
1F
100
AcDbEntity
  8
0
  6
CONTINUOUS
 62
     7
100
AcDbLine
 10
34.0
 20
30.2021
 30
0.0
 11
34.0
 21
34.025047
 31
0.0
  0
LINE
  5
C0
330
1F
100
AcDbEntity
  8
0
  6
CONTINUOUS
 62
     7
100
AcDbLine
 10
34.0
 20
29.9521
 30
0.0
 11
34.0
 21
30.2021
 31
0.0
  0
LINE
  5
C1
330
1F
100
AcDbEntity
  8
0
  6
CONTINUOUS
 62
     7
100
AcDbLine
 10
34.0
 20
41.2021
 30
0.0
 11
34.0
 21
41.452101
 31
0.0
  0
LINE
  5
C2
330
1F
100
AcDbEntity
  8
0
  6
CONTINUOUS
 62
     7
100
AcDbLine
 10
37.0
 20
29.9521
 30
0.0
 11
37.0
 21
30.2021
 31
0.0
  0
LINE
  5
C3
330
1F
100
AcDbEntity
  8
0
  6
CONTINUOUS
 62
     7
100
AcDbLine
 10
37.0
 20
30.2021
 30
0.0
 11
37.0
 21
34.025047
 31
0.0
  0
LINE
  5
C4
330
1F
100
AcDbEntity
  8
0
  6
CONTINUOUS
 62
     7
100
AcDbLine
 10
37.0
 20
34.025047
 30
0.0
 11
37.0
 21
37.379153
 31
0.0
  0
LINE
  5
C5
330
1F
100
AcDbEntity
  8
0
  6
CONTINUOUS
 62
     7
100
AcDbLine
 10
37.0
 20
37.379153
 30
0.0
 11
37.0
 21
41.2021
 31
0.0
  0
LINE
  5
C6
330
1F
100
AcDbEntity
  8
0
  6
CONTINUOUS
 62
     7
100
AcDbLine
 10
37.0
 20
41.2021
 30
0.0
 11
37.0
 21
41.452101
 31
0.0
  0
LINE
  5
C7
330
1F
100
AcDbEntity
  8
0
  6
CONTINUOUS
 62
     7
100
AcDbLine
 10
37.0
 20
30.2021
 30
0.0
 11
36.850403
 21
30.2021
 31
0.0
  0
LINE
  5
C8
330
1F
100
AcDbEntity
  8
0
  6
CONTINUOUS
 62
     7
100
AcDbLine
 10
36.850403
 20
30.2021
 30
0.0
 11
36.850403
 21
33.566685
 31
0.0
  0
LINE
  5
C9
330
1F
100
AcDbEntity
  8
0
  6
CONTINUOUS
 62
     7
100
AcDbLine
 10
36.850403
 20
33.566685
 30
0.0
 11
37.0
 21
34.025047
 31
0.0
  0
LINE
  5
CA
330
1F
100
AcDbEntity
  8
0
  6
CONTINUOUS
 62
     7
100
AcDbLine
 10
36.850403
 20
37.837516
 30
0.0
 11
36.850403
 21
41.2021
 31
0.0
  0
LINE
  5
CB
330
1F
100
AcDbEntity
  8
0
  6
CONTINUOUS
 62
     7
100
AcDbLine
 10
36.850403
 20
41.2021
 30
0.0
 11
37.0
 21
41.2021
 31
0.0
  0
LINE
  5
CC
330
1F
100
AcDbEntity
  8
0
  6
CONTINUOUS
 62
     7
100
AcDbLine
 10
37.0
 20
37.379153
 30
0.0
 11
36.850403
 21
37.837516
 31
0.0
  0
LINE
  5
CD
330
1F
100
AcDbEntity
  8
0
  6
CONTINUOUS
 62
     7
100
AcDbLine
 10
34.150403
 20
30.2021
 30
0.0
 11
34.150403
 21
33.566685
 31
0.0
  0
LINE
  5
CE
330
1F
100
AcDbEntity
  8
0
  6
CONTINUOUS
 62
     7
100
AcDbLine
 10
34.150403
 20
30.2021
 30
0.0
 11
34.0
 21
30.2021
 31
0.0
  0
LINE
  5
CF
330
1F
100
AcDbEntity
  8
0
  6
CONTINUOUS
 62
     7
100
AcDbLine
 10
34.0
 20
34.025047
 30
0.0
 11
34.150403
 21
33.566685
 31
0.0
  0
LINE
  5
D0
330
1F
100
AcDbEntity
  8
0
  6
CONTINUOUS
 62
     7
100
AcDbLine
 10
34.150403
 20
33.566685
 30
0.0
 11
36.850403
 21
33.566685
 31
0.0
  0
LINE
  5
D1
330
1F
100
AcDbEntity
  8
0
  6
CONTINUOUS
 62
     7
100
AcDbLine
 10
34.150403
 20
37.837516
 30
0.0
 11
34.0
 21
37.379153
 31
0.0
  0
LINE
  5
D2
330
1F
100
AcDbEntity
  8
0
  6
CONTINUOUS
 62
     7
100
AcDbLine
 10
36.850403
 20
37.837516
 30
0.0
 11
34.150403
 21
37.837516
 31
0.0
  0
LINE
  5
D3
330
1F
100
AcDbEntity
  8
0
  6
CONTINUOUS
 62
     7
100
AcDbLine
 10
34.0
 20
41.2021
 30
0.0
 11
34.150403
 21
41.2021
 31
0.0
  0
LINE
  5
D4
330
1F
100
AcDbEntity
  8
0
  6
CONTINUOUS
 62
     7
100
AcDbLine
 10
34.150403
 20
37.837516
 30
0.0
 11
34.150403
 21
41.2021
 31
0.0
  0
LINE
  5
D5
330
1F
100
AcDbEntity
  8
0
  6
CONTINUOUS
 62
     7
100
AcDbLine
 10
34.150403
 20
41.2021
 30
0.0
 11
36.850403
 21
41.2021
 31
0.0
  0
LINE
  5
D6
330
1F
100
AcDbEntity
  8
0
  6
CONTINUOUS
 62
     7
100
AcDbLine
 10
36.850403
 20
30.2021
 30
0.0
 11
34.150403
 21
30.2021
 31
0.0
  0
LINE
  5
D7
330
1F
100
AcDbEntity
  8
0
  6
CONTINUOUS
 62
     7
100
AcDbLine
 10
30.0
 20
35.7021
 30
0.0
 11
30.0
 21
39.12475
 31
0.0
  0
LINE
  5
D8
330
1F
100
AcDbEntity
  8
0
  6
CONTINUOUS
 62
     7
100
AcDbLine
 10
30.0
 20
32.27945
 30
0.0
 11
30.0
 21
35.7021
 31
0.0
  0
LINE
  5
D9
330
1F
100
AcDbEntity
  8
0
  6
CONTINUOUS
 62
     7
100
AcDbLine
 10
124.671503
 20
45.0521
 30
0.0
 11
124.671503
 21
26.3521
 31
0.0
  0
INSERT
  5
DD
330
1F
100
AcDbEntity
  8
0
100
AcDbBlockReference
  2
BLKF011
 10
0.0
 20
0.0
 30
0.0
  0
LINE
  5
10C
330
1F
100
AcDbEntity
  8
0
  6
CONTINUOUS
 62
     7
100
AcDbLine
 10
123.437014
 20
45.115233
 30
0.0
 11
123.521962
 21
45.1145
 31
0.0
  0
INSERT
  5
110
330
1F
100
AcDbEntity
  8
0
100
AcDbBlockReference
  2
BLKF012
 10
0.0
 20
0.0
 30
0.0
  0
INSERT
  5
253
330
1F
100
AcDbEntity
  8
0
100
AcDbBlockReference
  2
BLKF013
 10
0.0
 20
0.0
 30
0.0
  0
LINE
  5
261
330
1F
100
AcDbEntity
  8
0
  6
CONTINUOUS
 62
     7
100
AcDbLine
 10
125.971503
 20
27.2521
 30
0.0
 11
125.971503
 21
44.1521
 31
0.0
  0
LINE
  5
262
330
1F
100
AcDbEntity
  8
0
  6
CONTINUOUS
 62
     7
100
AcDbLine
 10
128.771503
 20
27.5521
 30
0.0
 11
128.771503
 21
43.8521
 31
0.0
  0
LINE
  5
263
330
1F
100
AcDbEntity
  8
0
  6
CONTINUOUS
 62
     7
100
AcDbLine
 10
132.771503
 20
43.6521
 30
0.0
 11
132.771503
 21
27.7521
 31
0.0
  0
LINE
  5
264
330
1F
100
AcDbEntity
  8
0
  6
CONTINUOUS
 62
     7
100
AcDbLine
 10
46.771503
 20
35.7021
 30
0.0
 11
46.771503
 21
26.3521
 31
0.0
  0
LINE
  5
265
330
1F
100
AcDbEntity
  8
0
  6
CONTINUOUS
 62
     7
100
AcDbLine
 10
46.771503
 20
45.0521
 30
0.0
 11
46.771503
 21
35.7021
 31
0.0
  0
INSERT
  5
269
330
1F
100
AcDbEntity
  8
0
100
AcDbBlockReference
  2
BLKF014
 10
0.0
 20
0.0
 30
0.0
  0
INSERT
  5
27C
330
1F
100
AcDbEntity
  8
0
100
AcDbBlockReference
  2
BLKF015
 10
0.0
 20
0.0
 30
0.0
  0
INSERT
  5
31A
330
1F
100
AcDbEntity
  8
0
100
AcDbBlockReference
  2
BLKF016
 10
0.0
 20
0.0
 30
0.0
  0
INSERT
  5
327
330
1F
100
AcDbEntity
  8
0
100
AcDbBlockReference
  2
BLKF017
 10
0.0
 20
0.0
 30
0.0
  0
LINE
  5
392
330
1F
100
AcDbEntity
  8
0
  6
CONTINUOUS
 62
     7
100
AcDbLine
 10
44.571503
 20
26.4521
 30
0.0
 11
44.571503
 21
44.9521
 31
0.0
  0
LINE
  5
393
330
1F
100
AcDbEntity
  8
0
  6
CONTINUOUS
 62
     7
100
AcDbLine
 10
50.971503
 20
35.7021
 30
0.0
 11
50.971503
 21
45.2271
 31
0.0
  0
LINE
  5
394
330
1F
100
AcDbEntity
  8
0
  6
CONTINUOUS
 62
     7
100
AcDbLine
 10
50.971503
 20
26.1771
 30
0.0
 11
50.971503
 21
35.7021
 31
0.0
  0
LINE
  5
395
330
1F
100
AcDbEntity
  8
0
  6
CONTINUOUS
 62
     7
100
AcDbLine
 10
107.071503
 20
35.7021
 30
0.0
 11
107.071503
 21
45.2271
 31
0.0
  0
LINE
  5
396
330
1F
100
AcDbEntity
  8
0
  6
CONTINUOUS
 62
     7
100
AcDbLine
 10
107.071503
 20
26.1771
 30
0.0
 11
107.071503
 21
35.7021
 31
0.0
  0
LINE
  5
397
330
1F
100
AcDbEntity
  8
0
  6
CONTINUOUS
 62
     7
100
AcDbLine
 10
47.699584
 20
35.7021
 30
0.0
 11
47.699584
 21
45.2171
 31
0.0
  0
LINE
  5
398
330
1F
100
AcDbEntity
  8
0
  6
CONTINUOUS
 62
     7
100
AcDbLine
 10
47.699584
 20
26.1871
 30
0.0
 11
47.699584
 21
35.7021
 31
0.0
  0
LINE
  5
399
330
1F
100
AcDbEntity
  8
0
  6
CONTINUOUS
 62
     7
100
AcDbLine
 10
46.971503
 20
35.7021
 30
0.0
 11
46.971503
 21
44.9521
 31
0.0
  0
LINE
  5
39A
330
1F
100
AcDbEntity
  8
0
  6
CONTINUOUS
 62
     7
100
AcDbLine
 10
46.971503
 20
26.4521
 30
0.0
 11
46.971503
 21
35.7021
 31
0.0
  0
LINE
  5
39B
330
1F
100
AcDbEntity
  8
0
  6
CONTINUOUS
 62
     7
100
AcDbLine
 10
122.371503
 20
35.7021
 30
0.0
 11
122.371503
 21
26.2871
 31
0.0
  0
LINE
  5
39C
330
1F
100
AcDbEntity
  8
0
  6
CONTINUOUS
 62
     7
100
AcDbLine
 10
122.371503
 20
45.1171
 30
0.0
 11
122.371503
 21
35.7021
 31
0.0
  0
LINE
  5
39D
330
1F
100
AcDbEntity
  8
0
  6
CONTINUOUS
 62
     8
100
AcDbLine
 10
40.7
 20
29.8021
 30
0.0
 11
40.7
 21
41.6021
 31
0.0
  0
LINE
  5
39E
330
1F
100
AcDbEntity
  8
0
  6
CONTINUOUS
 62
     8
100
AcDbLine
 10
33.558846
 20
41.6021
 30
0.0
 11
33.558846
 21
29.8021
 31
0.0
  0
LINE
  5
39F
330
1F
100
AcDbEntity
  8
0
  6
CONTINUOUS
 62
     8
100
AcDbLine
 10
33.058846
 20
35.7021
 30
0.0
 11
33.058846
 21
41.468126
 31
0.0
  0
LINE
  5
3A0
330
1F
100
AcDbEntity
  8
0
  6
CONTINUOUS
 62
     8
100
AcDbLine
 10
33.058846
 20
29.936075
 30
0.0
 11
33.058846
 21
35.7021
 31
0.0
  0
LINE
  5
3A1
330
1F
100
AcDbEntity
  8
0
  6
CONTINUOUS
 62
     8
100
AcDbLine
 10
30.5
 20
35.7021
 30
0.0
 11
30.5
 21
31.413425
 31
0.0
  0
LINE
  5
3A2
330
1F
100
AcDbEntity
  8
0
  6
CONTINUOUS
 62
     8
100
AcDbLine
 10
30.5
 20
39.990775
 30
0.0
 11
30.5
 21
35.7021
 31
0.0
  0
LINE
  5
3A3
330
1F
100
AcDbEntity
  8
CSLAYER2
  6
CONTINUOUS
 62
     3
100
AcDbLine
 10
66.571503
 20
45.2271
 30
0.0
 11
66.571503
 21
26.1771
 31
0.0
  0
LINE
  5
3A4
330
1F
100
AcDbEntity
  8
CSLAYER2
  6
CONTINUOUS
 62
     3
100
AcDbLine
 10
107.071503
 20
45.2271
 30
0.0
 11
107.071503
 21
49.114895
 31
0.0
  0
INSERT
  5
3A8
330
1F
100
AcDbEntity
  8
0
100
AcDbBlockReference
  2
BLKF018
 10
0.0
 20
0.0
 30
0.0
  0
INSERT
  5
3B6
330
1F
100
AcDbEntity
  8
0
100
AcDbBlockReference
  2
BLKF019
 10
0.0
 20
0.0
 30
0.0
  0
TEXT
  5
3C2
330
1F
100
AcDbEntity
  8
CSLAYER2
 62
     3
100
AcDbText
 10
65.347237
 20
20.0
 30
0.0
 40
3.2
  1
BMJ-319 / BMJ-320
 41
0.703944
  7
ED_VECTOR
 72
     5
 11
103.427237
 21
20.0
 31
0.0
100
AcDbText
  0
ENDSEC
  0
SECTION
  2
OBJECTS
  0
DICTIONARY
  5
C
330
0
100
AcDbDictionary
  3
ACAD_GROUP
350
D
  3
ACAD_LAYOUT
350
1A
  3
ACAD_MLINESTYLE
350
17
  3
ACAD_PLOTSETTINGS
350
19
1001
ACAD
1000
TREAT_AS_HARD
1070
     0
  0
DICTIONARY
  5
D
102
{ACAD_REACTORS
330
C
102
}
330
C
100
AcDbDictionary
1001
ACAD
1000
TREAT_AS_HARD
1070
     0
  0
DICTIONARY
  5
1A
102
{ACAD_REACTORS
330
C
102
}
330
C
100
AcDbDictionary
1001
ACAD
1000
TREAT_AS_HARD
1070
     0
  0
DICTIONARY
  5
17
102
{ACAD_REACTORS
330
C
102
}
330
C
100
AcDbDictionary
  3
STANDARD
350
18
1001
ACAD
1000
TREAT_AS_HARD
1070
     0
  0
DICTIONARY
  5
19
102
{ACAD_REACTORS
330
C
102
}
330
C
100
AcDbDictionary
1001
ACAD
1000
TREAT_AS_HARD
1070
     0
  0
MLINESTYLE
  5
18
102
{ACAD_REACTORS
330
17
102
}
330
17
100
AcDbMlineStyle
  2
Standard
 70
     0
  3

 62
   256
 51
90.0
 52
90.0
 71
     2
 49
0.5
 62
   256
  6
BYLAYER
 49
-0.5
 62
   256
  6
BYLAYER
  0
ENDSEC
  0
EOF
