  0
SECTION
  2
HEADER
  9
$ACADVER
  1
AC1012
  9
$DWGCODEPAGE
  3
ansi_932
  9
$INSBASE
 10
0.0
 20
0.0
 30
0.0
  9
$EXTMIN
 10
0.0
 20
0.0
 30
0.0
  9
$EXTMAX
 10
180.706932
 20
86.200674
 30
0.0
  9
$LIMMIN
 10
0.0
 20
0.0
  9
$LIMMAX
 10
180.706932
 20
86.200674
  9
$ORTHOMODE
 70
     0
  9
$REGENMODE
 70
     1
  9
$FILLMODE
 70
     1
  9
$QTEXTMODE
 70
     0
  9
$MIRRTEXT
 70
     1
  9
$DRAGMODE
 70
     2
  9
$LTSCALE
 40
1.0
  9
$OSMODE
 70
    37
  9
$ATTMODE
 70
     1
  9
$TEXTSIZE
 40
0.2
  9
$TRACEWID
 40
0.05
  9
$TEXTSTYLE
  7
ED_VECTOR
  9
$CLAYER
  8
0
  9
$CELTYPE
  6
BYLAYER
  9
$CECOLOR
 62
   256
  9
$CELTSCALE
 40
1.0
  9
$DELOBJ
 70
     1
  9
$DISPSILH
 70
     0
  9
$DIMSCALE
 40
1.0
  9
$DIMASZ
 40
3.0
  9
$DIMEXO
 40
1.0
  9
$DIMDLI
 40
10.0
  9
$DIMRND
 40
0.0
  9
$DIMDLE
 40
5.0
  9
$DIMEXE
 40
1.0
  9
$DIMTP
 40
0.0
  9
$DIMTM
 40
0.0
  9
$DIMTXT
 40
4.0
  9
$DIMCEN
 40
2.5
  9
$DIMTSZ
 40
0.0
  9
$DIMTOL
 70
     0
  9
$DIMLIM
 70
     0
  9
$DIMTIH
 70
     0
  9
$DIMTOH
 70
     0
  9
$DIMSE1
 70
     0
  9
$DIMSE2
 70
     0
  9
$DIMTAD
 70
     1
  9
$DIMZIN
 70
     8
  9
$DIMBLK
  1

  9
$DIMASO
 70
     1
  9
$DIMSHO
 70
     1
  9
$DIMPOST
  1

  9
$DIMAPOST
  1

  9
$DIMALT
 70
     0
  9
$DIMALTD
 70
     3
  9
$DIMALTF
 40
0.03937
  9
$DIMLFAC
 40
1.0
  9
$DIMTOFL
 70
     1
  9
$DIMTVP
 40
0.0
  9
$DIMTIX
 70
     0
  9
$DIMSOXD
 70
     0
  9
$DIMSAH
 70
     1
  9
$DIMBLK1
  1
EDTIP_ARROW_S
  9
$DIMBLK2
  1
EDTIP_ARROW_E
  9
$DIMSTYLE
  2
EDDIMINFO
  9
$DIMCLRD
 70
     7
  9
$DIMCLRE
 70
     7
  9
$DIMCLRT
 70
     7
  9
$DIMTFAC
 40
1.0
  9
$DIMGAP
 40
1.0
  9
$DIMJUST
 70
     0
  9
$DIMSD1
 70
     0
  9
$DIMSD2
 70
     0
  9
$DIMTOLJ
 70
     0
  9
$DIMTZIN
 70
     8
  9
$DIMALTZ
 70
     0
  9
$DIMALTTZ
 70
     0
  9
$DIMFIT
 70
     3
  9
$DIMUPT
 70
     0
  9
$DIMUNIT
 70
     2
  9
$DIMDEC
 70
     2
  9
$DIMTDEC
 70
     2
  9
$DIMALTU
 70
     2
  9
$DIMALTTD
 70
     3
  9
$DIMTXSTY
  7
ED_VECTOR
  9
$DIMAUNIT
 70
     0
  9
$LUNITS
 70
     2
  9
$LUPREC
 70
     4
  9
$SKETCHINC
 40
0.1
  9
$FILLETRAD
 40
0.5
  9
$AUNITS
 70
     0
  9
$AUPREC
 70
     0
  9
$MENU
  1
.
  9
$ELEVATION
 40
0.0
  9
$PELEVATION
 40
0.0
  9
$THICKNESS
 40
0.0
  9
$LIMCHECK
 70
     0
  9
$CHAMFERA
 40
0.5
  9
$CHAMFERB
 40
0.5
  9
$CHAMFERC
 40
1.0
  9
$CHAMFERD
 40
0.0
  9
$SKPOLY
 70
     0
  9
$TDCREATE
 40
2456063.667749815
  9
$TDUPDATE
 40
2456063.667749826
  9
$TDINDWG
 40
0.0000000116
  9
$TDUSRTIMER
 40
0.0000000116
  9
$USRTIMER
 70
     1
  9
$ANGBASE
 50
0.0
  9
$ANGDIR
 70
     0
  9
$PDMODE
 70
     0
  9
$PDSIZE
 40
0.0
  9
$PLINEWID
 40
0.0
  9
$COORDS
 70
     1
  9
$SPLFRAME
 70
     0
  9
$SPLINETYPE
 70
     6
  9
$SPLINESEGS
 70
     8
  9
$ATTDIA
 70
     0
  9
$ATTREQ
 70
     1
  9
$HANDLING
 70
     1
  9
$HANDSEED
  5
40D
  9
$SURFTAB1
 70
     6
  9
$SURFTAB2
 70
     6
  9
$SURFTYPE
 70
     6
  9
$SURFU
 70
     6
  9
$SURFV
 70
     6
  9
$UCSNAME
  2

  9
$UCSORG
 10
0.0
 20
0.0
 30
0.0
  9
$UCSXDIR
 10
1.0
 20
0.0
 30
0.0
  9
$UCSYDIR
 10
0.0
 20
1.0
 30
0.0
  9
$PUCSNAME
  2

  9
$PUCSORG
 10
0.0
 20
0.0
 30
0.0
  9
$PUCSXDIR
 10
1.0
 20
0.0
 30
0.0
  9
$PUCSYDIR
 10
0.0
 20
1.0
 30
0.0
  9
$USERI1
 70
     0
  9
$USERI2
 70
     0
  9
$USERI3
 70
     0
  9
$USERI4
 70
     0
  9
$USERI5
 70
     0
  9
$USERR1
 40
0.0
  9
$USERR2
 40
0.0
  9
$USERR3
 40
0.0
  9
$USERR4
 40
0.0
  9
$USERR5
 40
0.0
  9
$WORLDVIEW
 70
     1
  9
$SHADEDGE
 70
     3
  9
$SHADEDIF
 70
    70
  9
$TILEMODE
 70
     1
  9
$MAXACTVP
 70
    64
  9
$PINSBASE
 10
0.0
 20
0.0
 30
0.0
  9
$PLIMCHECK
 70
     0
  9
$PEXTMIN
 10
1.000000E+20
 20
1.000000E+20
 30
1.000000E+20
  9
$PEXTMAX
 10
-1.000000E+20
 20
-1.000000E+20
 30
-1.000000E+20
  9
$PLIMMIN
 10
0.0
 20
0.0
  9
$PLIMMAX
 10
12.0
 20
9.0
  9
$UNITMODE
 70
     0
  9
$VISRETAIN
 70
     1
  9
$PLINEGEN
 70
     0
  9
$PSLTSCALE
 70
     1
  9
$TREEDEPTH
 70
  3020
  9
$PICKSTYLE
 70
     1
  9
$CMLSTYLE
  2
STANDARD
  9
$CMLJUST
 70
     0
  9
$CMLSCALE
 40
1.0
  9
$SAVEIMAGES
 70
     1
  0
ENDSEC
  0
SECTION
  2
CLASSES
  0
CLASS
  1
ACDBDICTIONARYWDFLT
  2
AcDbDictionaryWithDefault
  3
ObjectDBX Classes
 90
    32768
280
     0
281
     0
  0
CLASS
  1
XRECORD
  2
AcDbXrecord
  3
AutoCAD 2000
 90
    32768
280
     0
281
     0
  0
CLASS
  1
LWPOLYLINE
  2
AcDbPolyline
  3
AutoCAD 2000
 90
    32768
280
     0
281
     1
  0
CLASS
  1
HATCH
  2
AcDbHatch
  3
AutoCAD 2000
 90
    32768
280
     0
281
     1
  0
CLASS
  1
ACDBPLACEHOLDER
  2
AcDbPlaceHolder
  3
ObjectDBX Classes
 90
        0
280
     0
281
     0
  0
CLASS
  1
LAYOUT
  2
AcDbLayout
  3
ObjectDBX Classes
 90
        0
280
     0
281
     0
  0
ENDSEC
  0
SECTION
  2
TABLES
  0
TABLE
  2
VPORT
  5
8
330
0
100
AcDbSymbolTable
 70
     1
  0
VPORT
  5
29
330
8
100
AcDbSymbolTableRecord
100
AcDbViewportTableRecord
  2
*ACTIVE
 70
     0
 10
0.0
 20
0.0
 11
1.0
 21
1.0
 12
90.353466
 22
43.100337
 13
0.0
 23
0.0
 14
0.5
 24
0.5
 15
0.5
 25
0.5
 16
0.0
 26
0.0
 36
1.0
 17
0.0
 27
0.0
 37
0.0
 40
86.200674
 41
2.096352
 42
50.0
 43
0.0
 44
0.0
 50
0.0
 51
0.0
 71
     0
 72
   100
 73
     1
 74
     3
 75
     0
 76
     0
 77
     0
 78
     0
  0
ENDTAB
  0
TABLE
  2
LTYPE
  5
5
330
0
100
AcDbSymbolTable
 70
     5
  0
LTYPE
  5
14
330
5
100
AcDbSymbolTableRecord
100
AcDbLinetypeTableRecord
  2
BYBLOCK
 70
     0
  3

 72
    65
 73
     0
 40
0.0
  0
LTYPE
  5
15
330
5
100
AcDbSymbolTableRecord
100
AcDbLinetypeTableRecord
  2
BYLAYER
 70
     0
  3

 72
    65
 73
     0
 40
0.0
  0
LTYPE
  5
16
330
5
100
AcDbSymbolTableRecord
100
AcDbLinetypeTableRecord
  2
CONTINUOUS
 70
     0
  3
--------------------
 72
    65
 73
     0
 40
0.0
  0
LTYPE
  5
2A
330
5
100
AcDbSymbolTableRecord
100
AcDbLinetypeTableRecord
  2
DASHED
 70
     0
  3
- - - - - - - - - - -
 72
    65
 73
     2
 40
19.1
 49
12.7
 74
     0
 49
-6.4
 74
     0
  0
LTYPE
  5
2B
330
5
100
AcDbSymbolTableRecord
100
AcDbLinetypeTableRecord
  2
CENTER
 70
     0
  3
- ･ - ･ - ･ - ･ - ･ - ･ - ･ - ･ - ･ - ･ -
 72
    65
 73
     4
 40
51.0
 49
31.8
 74
     0
 49
-6.4
 74
     0
 49
6.4
 74
     0
 49
-6.4
 74
     0
  0
LTYPE
  5
2C
330
5
100
AcDbSymbolTableRecord
100
AcDbLinetypeTableRecord
  2
PHANTOM
 70
     0
  3
- ･ ･ - ･ ･ - ･ ･ - ･ ･ - ･ ･ - ･ ･ - ･ ･ - 
 72
    65
 73
     6
 40
63.8
 49
31.8
 74
     0
 49
-6.4
 74
     0
 49
6.4
 74
     0
 49
-6.4
 74
     0
 49
6.4
 74
     0
 49
-6.4
 74
     0
  0
LTYPE
  5
2D
330
5
100
AcDbSymbolTableRecord
100
AcDbLinetypeTableRecord
  2
DOT
 70
     0
  3
・・・・・・・・・・・・・・・
 72
    65
 73
     2
 40
6.5
 49
0.1
 74
     0
 49
-6.4
 74
     0
  0
ENDTAB
  0
TABLE
  2
LAYER
  5
2
330
0
100
AcDbSymbolTable
 70
    16
  0
LAYER
  5
10
330
2
100
AcDbSymbolTableRecord
100
AcDbLayerTableRecord
  2
0
 70
     0
 62
     7
  6
CONTINUOUS
  0
LAYER
  5
2E
330
2
100
AcDbSymbolTableRecord
100
AcDbLayerTableRecord
  2
CSLAYER2
 70
     0
 62
     7
  6
CONTINUOUS
  0
ENDTAB
  0
TABLE
  2
STYLE
  5
3
330
0
100
AcDbSymbolTable
 70
     2
  0
STYLE
  5
11
330
3
100
AcDbSymbolTableRecord
100
AcDbTextStyleTableRecord
  2
STANDARD
 70
     0
 40
0.0
 41
1.0
 50
0.0
 71
     0
 42
0.2
  3
txt
  4

  0
STYLE
  5
3D
330
3
100
AcDbSymbolTableRecord
100
AcDbTextStyleTableRecord
  2
ED_VECTOR
 70
     0
 40
0.0
 41
1.0
 50
0.0
 71
     0
 42
0.2
  3
MONOTXT.SHX
  4
BIGFONT.SHX
  0
ENDTAB
  0
TABLE
  2
VIEW
  5
6
330
0
100
AcDbSymbolTable
 70
     0
  0
ENDTAB
  0
TABLE
  2
UCS
  5
7
330
0
100
AcDbSymbolTable
 70
     0
  0
ENDTAB
  0
TABLE
  2
APPID
  5
9
330
0
100
AcDbSymbolTable
 70
     1
  0
APPID
  5
12
330
9
100
AcDbSymbolTableRecord
100
AcDbRegAppTableRecord
  2
ACAD
 70
     0
  0
ENDTAB
  0
TABLE
  2
DIMSTYLE
  5
A
330
0
100
AcDbSymbolTable
 70
     2
  0
DIMSTYLE
105
27
330
A
100
AcDbSymbolTableRecord
100
AcDbDimStyleTableRecord
  2
STANDARD
 70
     0
  3

  4

  5

  6

  7

 40
1.0
 41
0.18
 42
0.0625
 43
0.38
 44
0.18
 45
0.0
 46
0.0
 47
0.0
 48
0.0
140
0.18
141
0.09
142
0.0
143
25.4
144
1.0
145
0.0
146
1.0
147
0.09
 71
     0
 72
     0
 73
     1
 74
     1
 75
     0
 76
     0
 77
     0
 78
     0
170
     0
171
     2
172
     0
173
     0
174
     0
175
     0
176
     0
177
     0
178
     0
270
     2
271
     4
272
     4
273
     2
274
     2
340
11
275
     0
280
     0
281
     0
282
     0
283
     1
284
     0
285
     0
286
     0
287
     3
288
     0
  0
DIMSTYLE
105
6E
330
A
100
AcDbSymbolTableRecord
100
AcDbDimStyleTableRecord
  2
EDDIMINFO
 70
     0
  3

  4

  5

  6
EDTIP_ARROW_S
  7
EDTIP_ARROW_E
 40
1.0
 41
3.0
 42
1.0
 43
10.0
 44
1.0
 45
0.0
 46
5.0
 47
0.0
 48
0.0
140
4.0
141
2.5
142
0.0
143
0.03937
144
1.0
145
0.0
146
1.0
147
1.0
 71
     0
 72
     0
 73
     0
 74
     0
 75
     0
 76
     0
 77
     1
 78
     8
170
     0
171
     3
172
     1
173
     1
174
     0
175
     0
176
     7
177
     7
178
     7
179
     2
270
     2
271
     2
272
     2
273
     2
274
     3
340
3D
275
     0
280
     0
281
     0
282
     0
283
     0
284
     8
285
     0
286
     0
287
     3
288
     0
  0
ENDTAB
  0
TABLE
  2
BLOCK_RECORD
  5
1
330
0
100
AcDbSymbolTable
 70
    23
  0
BLOCK_RECORD
  5
1F
330
1
100
AcDbSymbolTableRecord
100
AcDbBlockTableRecord
  2
*MODEL_SPACE
  0
BLOCK_RECORD
  5
1B
330
1
100
AcDbSymbolTableRecord
100
AcDbBlockTableRecord
  2
*PAPER_SPACE
  0
BLOCK_RECORD
  5
3E
330
1
100
AcDbSymbolTableRecord
100
AcDbBlockTableRecord
  2
EDTIP_ARROW_S
  0
BLOCK_RECORD
  5
44
330
1
100
AcDbSymbolTableRecord
100
AcDbBlockTableRecord
  2
EDTIP_ARROW_E
  0
BLOCK_RECORD
  5
4A
330
1
100
AcDbSymbolTableRecord
100
AcDbBlockTableRecord
  2
EDTIP_BLACKDOT_S
  0
BLOCK_RECORD
  5
50
330
1
100
AcDbSymbolTableRecord
100
AcDbBlockTableRecord
  2
EDTIP_BLACKDOT_E
  0
BLOCK_RECORD
  5
56
330
1
100
AcDbSymbolTableRecord
100
AcDbBlockTableRecord
  2
EDTIP_ARCHITECT_S
  0
BLOCK_RECORD
  5
5C
330
1
100
AcDbSymbolTableRecord
100
AcDbBlockTableRecord
  2
EDTIP_ARCHITECT_E
  0
BLOCK_RECORD
  5
62
330
1
100
AcDbSymbolTableRecord
100
AcDbBlockTableRecord
  2
EDTIP_CIVIL_S
  0
BLOCK_RECORD
  5
68
330
1
100
AcDbSymbolTableRecord
100
AcDbBlockTableRecord
  2
EDTIP_CIVIL_E
  0
BLOCK_RECORD
  5
E4
330
1
100
AcDbSymbolTableRecord
100
AcDbBlockTableRecord
  2
BLKF011
  0
BLOCK_RECORD
  5
117
330
1
100
AcDbSymbolTableRecord
100
AcDbBlockTableRecord
  2
BLKF012
  0
BLOCK_RECORD
  5
255
330
1
100
AcDbSymbolTableRecord
100
AcDbBlockTableRecord
  2
BLKF013
  0
BLOCK_RECORD
  5
269
330
1
100
AcDbSymbolTableRecord
100
AcDbBlockTableRecord
  2
BLKF014
  0
BLOCK_RECORD
  5
27C
330
1
100
AcDbSymbolTableRecord
100
AcDbBlockTableRecord
  2
BLKF015
  0
BLOCK_RECORD
  5
31A
330
1
100
AcDbSymbolTableRecord
100
AcDbBlockTableRecord
  2
BLKF016
  0
BLOCK_RECORD
  5
328
330
1
100
AcDbSymbolTableRecord
100
AcDbBlockTableRecord
  2
BLKF017
  0
BLOCK_RECORD
  5
3A0
330
1
100
AcDbSymbolTableRecord
100
AcDbBlockTableRecord
  2
BLKF018
  0
BLOCK_RECORD
  5
3AE
330
1
100
AcDbSymbolTableRecord
100
AcDbBlockTableRecord
  2
BLKF019
  0
BLOCK_RECORD
  5
3BC
330
1
100
AcDbSymbolTableRecord
100
AcDbBlockTableRecord
  2
BLKF020
  0
BLOCK_RECORD
  5
3CA
330
1
100
AcDbSymbolTableRecord
100
AcDbBlockTableRecord
  2
BLKF021
  0
BLOCK_RECORD
  5
3DB
330
1
100
AcDbSymbolTableRecord
100
AcDbBlockTableRecord
  2
BLKF022
  0
BLOCK_RECORD
  5
3EF
330
1
100
AcDbSymbolTableRecord
100
AcDbBlockTableRecord
  2
BLKF023
  0
BLOCK_RECORD
  5
3FF
330
1
100
AcDbSymbolTableRecord
100
AcDbBlockTableRecord
  2
BLKF024
  0
ENDTAB
  0
ENDSEC
  0
SECTION
  2
BLOCKS
  0
BLOCK
  5
20
330
1F
100
AcDbEntity
  8
0
100
AcDbBlockBegin
  2
*MODEL_SPACE
 70
     0
 71
     0
 10
0.0
 20
0.0
 30
0.0
  3
*MODEL_SPACE
  1

  0
ENDBLK
  5
21
330
1F
100
AcDbEntity
  8
0
100
AcDbBlockEnd
  0
BLOCK
  5
1C
330
1B
100
AcDbEntity
 67
     1
  8
0
100
AcDbBlockBegin
  2
*PAPER_SPACE
 70
     0
 71
     0
 10
0.0
 20
0.0
 30
0.0
  3
*PAPER_SPACE
  1

  0
ENDBLK
  5
1D
330
1B
100
AcDbEntity
 67
     1
  8
0
100
AcDbBlockEnd
  0
BLOCK
  5
3F
330
3E
100
AcDbEntity
  8
0
100
AcDbBlockBegin
  2
EDTIP_ARROW_S
 70
     0
 71
     0
 10
0.0
 20
0.0
 30
0.0
  3
EDTIP_ARROW_S
  1

  0
LINE
  5
41
330
3E
100
AcDbEntity
  8
0
  6
CONTINUOUS
 62
     0
100
AcDbLine
 10
0.0
 20
0.0
 30
0.0
 11
-1.0
 21
0.0
 31
0.0
  0
LINE
  5
42
330
3E
100
AcDbEntity
  8
0
  6
CONTINUOUS
 62
     0
100
AcDbLine
 10
0.0
 20
0.0
 30
0.0
 11
-0.965926
 21
0.258819
 31
0.0
  0
LINE
  5
43
330
3E
100
AcDbEntity
  8
0
  6
CONTINUOUS
 62
     0
100
AcDbLine
 10
0.0
 20
0.0
 30
0.0
 11
-0.965926
 21
-0.258819
 31
0.0
  0
ENDBLK
  5
40
330
3E
100
AcDbEntity
  8
0
100
AcDbBlockEnd
  0
BLOCK
  5
45
330
44
100
AcDbEntity
  8
0
100
AcDbBlockBegin
  2
EDTIP_ARROW_E
 70
     0
 71
     0
 10
0.0
 20
0.0
 30
0.0
  3
EDTIP_ARROW_E
  1

  0
LINE
  5
47
330
44
100
AcDbEntity
  8
0
  6
CONTINUOUS
 62
     0
100
AcDbLine
 10
0.0
 20
0.0
 30
0.0
 11
-1.0
 21
0.0
 31
0.0
  0
LINE
  5
48
330
44
100
AcDbEntity
  8
0
  6
CONTINUOUS
 62
     0
100
AcDbLine
 10
0.0
 20
0.0
 30
0.0
 11
-0.965926
 21
-0.258819
 31
0.0
  0
LINE
  5
49
330
44
100
AcDbEntity
  8
0
  6
CONTINUOUS
 62
     0
100
AcDbLine
 10
0.0
 20
0.0
 30
0.0
 11
-0.965926
 21
0.258819
 31
0.0
  0
ENDBLK
  5
46
330
44
100
AcDbEntity
  8
0
100
AcDbBlockEnd
  0
BLOCK
  5
4B
330
4A
100
AcDbEntity
  8
0
100
AcDbBlockBegin
  2
EDTIP_BLACKDOT_S
 70
     0
 71
     0
 10
0.0
 20
0.0
 30
0.0
  3
EDTIP_BLACKDOT_S
  1

  0
LINE
  5
4D
330
4A
100
AcDbEntity
  8
0
  6
CONTINUOUS
 62
     0
100
AcDbLine
 10
0.0
 20
0.0
 30
0.0
 11
-1.0
 21
0.0
 31
0.0
  0
CIRCLE
  5
4E
330
4A
100
AcDbEntity
  8
0
  6
CONTINUOUS
 62
     0
100
AcDbCircle
 10
0.0
 20
0.0
 30
0.0
 40
0.5
  0
CIRCLE
  5
4F
330
4A
100
AcDbEntity
  8
0
  6
CONTINUOUS
 62
     0
100
AcDbCircle
 10
0.0
 20
0.0
 30
0.0
 40
0.25
  0
ENDBLK
  5
4C
330
4A
100
AcDbEntity
  8
0
100
AcDbBlockEnd
  0
BLOCK
  5
51
330
50
100
AcDbEntity
  8
0
100
AcDbBlockBegin
  2
EDTIP_BLACKDOT_E
 70
     0
 71
     0
 10
0.0
 20
0.0
 30
0.0
  3
EDTIP_BLACKDOT_E
  1

  0
LINE
  5
53
330
50
100
AcDbEntity
  8
0
  6
CONTINUOUS
 62
     0
100
AcDbLine
 10
0.0
 20
0.0
 30
0.0
 11
-1.0
 21
0.0
 31
0.0
  0
CIRCLE
  5
54
330
50
100
AcDbEntity
  8
0
  6
CONTINUOUS
 62
     0
100
AcDbCircle
 10
0.0
 20
0.0
 30
0.0
 40
0.5
  0
CIRCLE
  5
55
330
50
100
AcDbEntity
  8
0
  6
CONTINUOUS
 62
     0
100
AcDbCircle
 10
0.0
 20
0.0
 30
0.0
 40
0.25
  0
ENDBLK
  5
52
330
50
100
AcDbEntity
  8
0
100
AcDbBlockEnd
  0
BLOCK
  5
57
330
56
100
AcDbEntity
  8
0
100
AcDbBlockBegin
  2
EDTIP_ARCHITECT_S
 70
     0
 71
     0
 10
0.0
 20
0.0
 30
0.0
  3
EDTIP_ARCHITECT_S
  1

  0
LINE
  5
59
330
56
100
AcDbEntity
  8
0
  6
CONTINUOUS
 62
     0
100
AcDbLine
 10
0.0
 20
0.0
 30
0.0
 11
-1.0
 21
0.0
 31
0.0
  0
LINE
  5
5A
330
56
100
AcDbEntity
  8
0
  6
CONTINUOUS
 62
     0
100
AcDbLine
 10
0.0
 20
0.0
 30
0.0
 11
-0.707107
 21
-0.707107
 31
0.0
  0
LINE
  5
5B
330
56
100
AcDbEntity
  8
0
  6
CONTINUOUS
 62
     0
100
AcDbLine
 10
0.0
 20
0.0
 30
0.0
 11
0.707107
 21
0.707107
 31
0.0
  0
ENDBLK
  5
58
330
56
100
AcDbEntity
  8
0
100
AcDbBlockEnd
  0
BLOCK
  5
5D
330
5C
100
AcDbEntity
  8
0
100
AcDbBlockBegin
  2
EDTIP_ARCHITECT_E
 70
     0
 71
     0
 10
0.0
 20
0.0
 30
0.0
  3
EDTIP_ARCHITECT_E
  1

  0
LINE
  5
5F
330
5C
100
AcDbEntity
  8
0
  6
CONTINUOUS
 62
     0
100
AcDbLine
 10
0.0
 20
0.0
 30
0.0
 11
-1.0
 21
0.0
 31
0.0
  0
LINE
  5
60
330
5C
100
AcDbEntity
  8
0
  6
CONTINUOUS
 62
     0
100
AcDbLine
 10
0.0
 20
0.0
 30
0.0
 11
-0.707107
 21
-0.707107
 31
0.0
  0
LINE
  5
61
330
5C
100
AcDbEntity
  8
0
  6
CONTINUOUS
 62
     0
100
AcDbLine
 10
0.0
 20
0.0
 30
0.0
 11
0.707107
 21
0.707107
 31
0.0
  0
ENDBLK
  5
5E
330
5C
100
AcDbEntity
  8
0
100
AcDbBlockEnd
  0
BLOCK
  5
63
330
62
100
AcDbEntity
  8
0
100
AcDbBlockBegin
  2
EDTIP_CIVIL_S
 70
     0
 71
     0
 10
0.0
 20
0.0
 30
0.0
  3
EDTIP_CIVIL_S
  1

  0
LINE
  5
65
330
62
100
AcDbEntity
  8
0
  6
CONTINUOUS
 62
     0
100
AcDbLine
 10
0.0
 20
0.0
 30
0.0
 11
-1.0
 21
0.0
 31
0.0
  0
LINE
  5
66
330
62
100
AcDbEntity
  8
0
  6
CONTINUOUS
 62
     0
100
AcDbLine
 10
0.0
 20
-0.083333
 30
0.0
 11
-1.0
 21
-0.083333
 31
0.0
  0
LINE
  5
67
330
62
100
AcDbEntity
  8
0
  6
CONTINUOUS
 62
     0
100
AcDbLine
 10
0.0
 20
-0.166667
 30
0.0
 11
-1.0
 21
-0.166667
 31
0.0
  0
ENDBLK
  5
64
330
62
100
AcDbEntity
  8
0
100
AcDbBlockEnd
  0
BLOCK
  5
69
330
68
100
AcDbEntity
  8
0
100
AcDbBlockBegin
  2
EDTIP_CIVIL_E
 70
     0
 71
     0
 10
0.0
 20
0.0
 30
0.0
  3
EDTIP_CIVIL_E
  1

  0
LINE
  5
6B
330
68
100
AcDbEntity
  8
0
  6
CONTINUOUS
 62
     0
100
AcDbLine
 10
0.0
 20
0.0
 30
0.0
 11
-1.0
 21
0.0
 31
0.0
  0
LINE
  5
6C
330
68
100
AcDbEntity
  8
0
  6
CONTINUOUS
 62
     0
100
AcDbLine
 10
0.0
 20
0.083333
 30
0.0
 11
-1.0
 21
0.083333
 31
0.0
  0
LINE
  5
6D
330
68
100
AcDbEntity
  8
0
  6
CONTINUOUS
 62
     0
100
AcDbLine
 10
0.0
 20
0.166667
 30
0.0
 11
-1.0
 21
0.166667
 31
0.0
  0
ENDBLK
  5
6A
330
68
100
AcDbEntity
  8
0
100
AcDbBlockEnd
  0
BLOCK
  5
E5
330
E4
100
AcDbEntity
  8
0
100
AcDbBlockBegin
  2
BLKF011
 70
     0
 71
     0
 10
0.0
 20
0.0
 30
0.0
  3
BLKF011
  1

  0
LINE
  5
E8
330
E4
100
AcDbEntity
  8
0
  6
CONTINUOUS
 62
     7
100
AcDbLine
 10
148.456931
 20
62.61307
 30
0.0
 11
148.416197
 21
62.613281
 31
0.0
  0
LINE
  5
E9
330
E4
100
AcDbEntity
  8
0
  6
CONTINUOUS
 62
     7
100
AcDbLine
 10
148.416197
 20
62.613281
 30
0.0
 11
148.395862
 21
62.613405
 31
0.0
  0
LINE
  5
EA
330
E4
100
AcDbEntity
  8
0
  6
CONTINUOUS
 62
     7
100
AcDbLine
 10
148.395862
 20
62.613405
 30
0.0
 11
148.375566
 21
62.61355
 31
0.0
  0
LINE
  5
EB
330
E4
100
AcDbEntity
  8
0
  6
CONTINUOUS
 62
     7
100
AcDbLine
 10
148.375566
 20
62.61355
 30
0.0
 11
148.355322
 21
62.613722
 31
0.0
  0
LINE
  5
EC
330
E4
100
AcDbEntity
  8
0
  6
CONTINUOUS
 62
     7
100
AcDbLine
 10
148.355322
 20
62.613722
 30
0.0
 11
148.335143
 21
62.613931
 31
0.0
  0
LINE
  5
ED
330
E4
100
AcDbEntity
  8
0
  6
CONTINUOUS
 62
     7
100
AcDbLine
 10
148.335143
 20
62.613931
 30
0.0
 11
148.315041
 21
62.614181
 31
0.0
  0
LINE
  5
EE
330
E4
100
AcDbEntity
  8
0
  6
CONTINUOUS
 62
     7
100
AcDbLine
 10
148.315041
 20
62.614181
 30
0.0
 11
148.29503
 21
62.614482
 31
0.0
  0
LINE
  5
EF
330
E4
100
AcDbEntity
  8
0
  6
CONTINUOUS
 62
     7
100
AcDbLine
 10
148.29503
 20
62.614482
 30
0.0
 11
148.275619
 21
62.614827
 31
0.0
  0
LINE
  5
F0
330
E4
100
AcDbEntity
  8
0
  6
CONTINUOUS
 62
     7
100
AcDbLine
 10
148.275619
 20
62.614827
 30
0.0
 11
148.25632
 21
62.615223
 31
0.0
  0
LINE
  5
F1
330
E4
100
AcDbEntity
  8
0
  6
CONTINUOUS
 62
     7
100
AcDbLine
 10
148.25632
 20
62.615223
 30
0.0
 11
148.237148
 21
62.615668
 31
0.0
  0
LINE
  5
F2
330
E4
100
AcDbEntity
  8
0
  6
CONTINUOUS
 62
     7
100
AcDbLine
 10
148.237148
 20
62.615668
 30
0.0
 11
148.218117
 21
62.616158
 31
0.0
  0
LINE
  5
F3
330
E4
100
AcDbEntity
  8
0
  6
CONTINUOUS
 62
     7
100
AcDbLine
 10
148.218117
 20
62.616158
 30
0.0
 11
148.199241
 21
62.616691
 31
0.0
  0
LINE
  5
F4
330
E4
100
AcDbEntity
  8
0
  6
CONTINUOUS
 62
     7
100
AcDbLine
 10
148.199241
 20
62.616691
 30
0.0
 11
148.180535
 21
62.617263
 31
0.0
  0
LINE
  5
F5
330
E4
100
AcDbEntity
  8
0
  6
CONTINUOUS
 62
     7
100
AcDbLine
 10
148.180535
 20
62.617263
 30
0.0
 11
148.162012
 21
62.617873
 31
0.0
  0
LINE
  5
F6
330
E4
100
AcDbEntity
  8
0
  6
CONTINUOUS
 62
     7
100
AcDbLine
 10
148.162012
 20
62.617873
 30
0.0
 11
148.143686
 21
62.618517
 31
0.0
  0
LINE
  5
F7
330
E4
100
AcDbEntity
  8
0
  6
CONTINUOUS
 62
     7
100
AcDbLine
 10
148.143686
 20
62.618517
 30
0.0
 11
148.124806
 21
62.619222
 31
0.0
  0
LINE
  5
F8
330
E4
100
AcDbEntity
  8
0
  6
CONTINUOUS
 62
     7
100
AcDbLine
 10
148.124806
 20
62.619222
 30
0.0
 11
148.106162
 21
62.619959
 31
0.0
  0
LINE
  5
F9
330
E4
100
AcDbEntity
  8
0
  6
CONTINUOUS
 62
     7
100
AcDbLine
 10
148.106162
 20
62.619959
 30
0.0
 11
148.087757
 21
62.620725
 31
0.0
  0
LINE
  5
FA
330
E4
100
AcDbEntity
  8
0
  6
CONTINUOUS
 62
     7
100
AcDbLine
 10
148.087757
 20
62.620725
 30
0.0
 11
148.069599
 21
62.621519
 31
0.0
  0
LINE
  5
FB
330
E4
100
AcDbEntity
  8
0
  6
CONTINUOUS
 62
     7
100
AcDbLine
 10
148.069599
 20
62.621519
 30
0.0
 11
148.05169
 21
62.622337
 31
0.0
  0
LINE
  5
FC
330
E4
100
AcDbEntity
  8
0
  6
CONTINUOUS
 62
     7
100
AcDbLine
 10
148.05169
 20
62.622337
 30
0.0
 11
148.034038
 21
62.623176
 31
0.0
  0
LINE
  5
FD
330
E4
100
AcDbEntity
  8
0
  6
CONTINUOUS
 62
     7
100
AcDbLine
 10
148.034038
 20
62.623176
 30
0.0
 11
148.016645
 21
62.624036
 31
0.0
  0
LINE
  5
FE
330
E4
100
AcDbEntity
  8
0
  6
CONTINUOUS
 62
     7
100
AcDbLine
 10
148.016645
 20
62.624036
 30
0.0
 11
147.999519
 21
62.624913
 31
0.0
  0
LINE
  5
FF
330
E4
100
AcDbEntity
  8
0
  6
CONTINUOUS
 62
     7
100
AcDbLine
 10
147.999519
 20
62.624913
 30
0.0
 11
147.982664
 21
62.625804
 31
0.0
  0
LINE
  5
100
330
E4
100
AcDbEntity
  8
0
  6
CONTINUOUS
 62
     7
100
AcDbLine
 10
147.982664
 20
62.625804
 30
0.0
 11
147.966084
 21
62.626707
 31
0.0
  0
LINE
  5
101
330
E4
100
AcDbEntity
  8
0
  6
CONTINUOUS
 62
     7
100
AcDbLine
 10
147.966084
 20
62.626707
 30
0.0
 11
147.949786
 21
62.627621
 31
0.0
  0
LINE
  5
102
330
E4
100
AcDbEntity
  8
0
  6
CONTINUOUS
 62
     7
100
AcDbLine
 10
147.949786
 20
62.627621
 30
0.0
 11
147.933773
 21
62.628541
 31
0.0
  0
LINE
  5
103
330
E4
100
AcDbEntity
  8
0
  6
CONTINUOUS
 62
     7
100
AcDbLine
 10
147.933773
 20
62.628541
 30
0.0
 11
147.918052
 21
62.629467
 31
0.0
  0
LINE
  5
104
330
E4
100
AcDbEntity
  8
0
  6
CONTINUOUS
 62
     7
100
AcDbLine
 10
147.918052
 20
62.629467
 30
0.0
 11
147.902627
 21
62.630394
 31
0.0
  0
LINE
  5
105
330
E4
100
AcDbEntity
  8
0
  6
CONTINUOUS
 62
     7
100
AcDbLine
 10
147.902627
 20
62.630394
 30
0.0
 11
147.887504
 21
62.631322
 31
0.0
  0
LINE
  5
106
330
E4
100
AcDbEntity
  8
0
  6
CONTINUOUS
 62
     7
100
AcDbLine
 10
147.887504
 20
62.631322
 30
0.0
 11
147.872686
 21
62.632247
 31
0.0
  0
LINE
  5
107
330
E4
100
AcDbEntity
  8
0
  6
CONTINUOUS
 62
     7
100
AcDbLine
 10
147.872686
 20
62.632247
 30
0.0
 11
147.85814
 21
62.633171
 31
0.0
  0
LINE
  5
108
330
E4
100
AcDbEntity
  8
0
  6
CONTINUOUS
 62
     7
100
AcDbLine
 10
147.85814
 20
62.633171
 30
0.0
 11
147.843919
 21
62.634087
 31
0.0
  0
LINE
  5
109
330
E4
100
AcDbEntity
  8
0
  6
CONTINUOUS
 62
     7
100
AcDbLine
 10
147.843919
 20
62.634087
 30
0.0
 11
147.830035
 21
62.634996
 31
0.0
  0
LINE
  5
10A
330
E4
100
AcDbEntity
  8
0
  6
CONTINUOUS
 62
     7
100
AcDbLine
 10
147.830035
 20
62.634996
 30
0.0
 11
147.816498
 21
62.635895
 31
0.0
  0
LINE
  5
10B
330
E4
100
AcDbEntity
  8
0
  6
CONTINUOUS
 62
     7
100
AcDbLine
 10
147.816498
 20
62.635895
 30
0.0
 11
147.790516
 21
62.637657
 31
0.0
  0
LINE
  5
10C
330
E4
100
AcDbEntity
  8
0
  6
CONTINUOUS
 62
     7
100
AcDbLine
 10
147.790516
 20
62.637657
 30
0.0
 11
147.766066
 21
62.639364
 31
0.0
  0
LINE
  5
10D
330
E4
100
AcDbEntity
  8
0
  6
CONTINUOUS
 62
     7
100
AcDbLine
 10
147.766066
 20
62.639364
 30
0.0
 11
147.74324
 21
62.641001
 31
0.0
  0
LINE
  5
10E
330
E4
100
AcDbEntity
  8
0
  6
CONTINUOUS
 62
     7
100
AcDbLine
 10
147.74324
 20
62.641001
 30
0.0
 11
147.722132
 21
62.642557
 31
0.0
  0
LINE
  5
10F
330
E4
100
AcDbEntity
  8
0
  6
CONTINUOUS
 62
     7
100
AcDbLine
 10
147.722132
 20
62.642557
 30
0.0
 11
147.702833
 21
62.644019
 31
0.0
  0
LINE
  5
110
330
E4
100
AcDbEntity
  8
0
  6
CONTINUOUS
 62
     7
100
AcDbLine
 10
147.702833
 20
62.644019
 30
0.0
 11
147.685438
 21
62.645376
 31
0.0
  0
LINE
  5
111
330
E4
100
AcDbEntity
  8
0
  6
CONTINUOUS
 62
     7
100
AcDbLine
 10
147.685438
 20
62.645376
 30
0.0
 11
147.670562
 21
62.646571
 31
0.0
  0
LINE
  5
112
330
E4
100
AcDbEntity
  8
0
  6
CONTINUOUS
 62
     7
100
AcDbLine
 10
147.670562
 20
62.646571
 30
0.0
 11
147.657696
 21
62.647633
 31
0.0
  0
LINE
  5
113
330
E4
100
AcDbEntity
  8
0
  6
CONTINUOUS
 62
     7
100
AcDbLine
 10
147.657696
 20
62.647633
 30
0.0
 11
147.638604
 21
62.64926
 31
0.0
  0
LINE
  5
114
330
E4
100
AcDbEntity
  8
0
  6
CONTINUOUS
 62
     7
100
AcDbLine
 10
147.638604
 20
62.64926
 30
0.0
 11
147.628197
 21
62.650182
 31
0.0
  0
LINE
  5
115
330
E4
100
AcDbEntity
  8
0
  6
CONTINUOUS
 62
     7
100
AcDbLine
 10
147.628197
 20
62.650182
 30
0.0
 11
147.622995
 21
62.650673
 31
0.0
  0
ENDBLK
  5
E6
330
E4
100
AcDbEntity
  8
0
100
AcDbBlockEnd
  0
BLOCK
  5
118
330
117
100
AcDbEntity
  8
0
100
AcDbBlockBegin
  2
BLKF012
 70
     0
 71
     0
 10
0.0
 20
0.0
 30
0.0
  3
BLKF012
  1

  0
LINE
  5
11B
330
117
100
AcDbEntity
  8
0
  6
CONTINUOUS
 62
     7
100
AcDbLine
 10
149.290845
 20
62.65067
 30
0.0
 11
149.29089
 21
62.650674
 31
0.0
  0
LINE
  5
11C
330
117
100
AcDbEntity
  8
0
  6
CONTINUOUS
 62
     7
100
AcDbLine
 10
149.29089
 20
62.650674
 30
0.0
 11
149.291804
 21
62.650749
 31
0.0
  0
LINE
  5
11D
330
117
100
AcDbEntity
  8
0
  6
CONTINUOUS
 62
     7
100
AcDbLine
 10
149.291804
 20
62.650749
 30
0.0
 11
149.292385
 21
62.650795
 31
0.0
  0
LINE
  5
11E
330
117
100
AcDbEntity
  8
0
  6
CONTINUOUS
 62
     7
100
AcDbLine
 10
149.292385
 20
62.650795
 30
0.0
 11
149.292648
 21
62.650813
 31
0.0
  0
LINE
  5
11F
330
117
100
AcDbEntity
  8
0
  6
CONTINUOUS
 62
     7
100
AcDbLine
 10
149.292648
 20
62.650813
 30
0.0
 11
149.292611
 21
62.650805
 31
0.0
  0
LINE
  5
120
330
117
100
AcDbEntity
  8
0
  6
CONTINUOUS
 62
     7
100
AcDbLine
 10
149.292611
 20
62.650805
 30
0.0
 11
149.292293
 21
62.650773
 31
0.0
  0
LINE
  5
121
330
117
100
AcDbEntity
  8
0
  6
CONTINUOUS
 62
     7
100
AcDbLine
 10
149.292293
 20
62.650773
 30
0.0
 11
149.291712
 21
62.650718
 31
0.0
  0
LINE
  5
122
330
117
100
AcDbEntity
  8
0
  6
CONTINUOUS
 62
     7
100
AcDbLine
 10
149.291712
 20
62.650718
 30
0.0
 11
149.290883
 21
62.650641
 31
0.0
  0
LINE
  5
123
330
117
100
AcDbEntity
  8
0
  6
CONTINUOUS
 62
     7
100
AcDbLine
 10
149.290883
 20
62.650641
 30
0.0
 11
149.289826
 21
62.650544
 31
0.0
  0
LINE
  5
124
330
117
100
AcDbEntity
  8
0
  6
CONTINUOUS
 62
     7
100
AcDbLine
 10
149.289826
 20
62.650544
 30
0.0
 11
149.288559
 21
62.650429
 31
0.0
  0
LINE
  5
125
330
117
100
AcDbEntity
  8
0
  6
CONTINUOUS
 62
     7
100
AcDbLine
 10
149.288559
 20
62.650429
 30
0.0
 11
149.287098
 21
62.650298
 31
0.0
  0
LINE
  5
126
330
117
100
AcDbEntity
  8
0
  6
CONTINUOUS
 62
     7
100
AcDbLine
 10
149.287098
 20
62.650298
 30
0.0
 11
149.285461
 21
62.650152
 31
0.0
  0
LINE
  5
127
330
117
100
AcDbEntity
  8
0
  6
CONTINUOUS
 62
     7
100
AcDbLine
 10
149.285461
 20
62.650152
 30
0.0
 11
149.283667
 21
62.649993
 31
0.0
  0
LINE
  5
128
330
117
100
AcDbEntity
  8
0
  6
CONTINUOUS
 62
     7
100
AcDbLine
 10
149.283667
 20
62.649993
 30
0.0
 11
149.281733
 21
62.649822
 31
0.0
  0
LINE
  5
129
330
117
100
AcDbEntity
  8
0
  6
CONTINUOUS
 62
     7
100
AcDbLine
 10
149.281733
 20
62.649822
 30
0.0
 11
149.279676
 21
62.649641
 31
0.0
  0
LINE
  5
12A
330
117
100
AcDbEntity
  8
0
  6
CONTINUOUS
 62
     7
100
AcDbLine
 10
149.279676
 20
62.649641
 30
0.0
 11
149.277514
 21
62.649451
 31
0.0
  0
LINE
  5
12B
330
117
100
AcDbEntity
  8
0
  6
CONTINUOUS
 62
     7
100
AcDbLine
 10
149.277514
 20
62.649451
 30
0.0
 11
149.275266
 21
62.649254
 31
0.0
  0
LINE
  5
12C
330
117
100
AcDbEntity
  8
0
  6
CONTINUOUS
 62
     7
100
AcDbLine
 10
149.275266
 20
62.649254
 30
0.0
 11
149.273006
 21
62.649058
 31
0.0
  0
LINE
  5
12D
330
117
100
AcDbEntity
  8
0
  6
CONTINUOUS
 62
     7
100
AcDbLine
 10
149.273006
 20
62.649058
 30
0.0
 11
149.270675
 21
62.648856
 31
0.0
  0
LINE
  5
12E
330
117
100
AcDbEntity
  8
0
  6
CONTINUOUS
 62
     7
100
AcDbLine
 10
149.270675
 20
62.648856
 30
0.0
 11
149.268271
 21
62.648648
 31
0.0
  0
LINE
  5
12F
330
117
100
AcDbEntity
  8
0
  6
CONTINUOUS
 62
     7
100
AcDbLine
 10
149.268271
 20
62.648648
 30
0.0
 11
149.265789
 21
62.648435
 31
0.0
  0
LINE
  5
130
330
117
100
AcDbEntity
  8
0
  6
CONTINUOUS
 62
     7
100
AcDbLine
 10
149.265789
 20
62.648435
 30
0.0
 11
149.263225
 21
62.648217
 31
0.0
  0
LINE
  5
131
330
117
100
AcDbEntity
  8
0
  6
CONTINUOUS
 62
     7
100
AcDbLine
 10
149.263225
 20
62.648217
 30
0.0
 11
149.260574
 21
62.647992
 31
0.0
  0
LINE
  5
132
330
117
100
AcDbEntity
  8
0
  6
CONTINUOUS
 62
     7
100
AcDbLine
 10
149.260574
 20
62.647992
 30
0.0
 11
149.257833
 21
62.647761
 31
0.0
  0
LINE
  5
133
330
117
100
AcDbEntity
  8
0
  6
CONTINUOUS
 62
     7
100
AcDbLine
 10
149.257833
 20
62.647761
 30
0.0
 11
149.254998
 21
62.647524
 31
0.0
  0
LINE
  5
134
330
117
100
AcDbEntity
  8
0
  6
CONTINUOUS
 62
     7
100
AcDbLine
 10
149.254998
 20
62.647524
 30
0.0
 11
149.252064
 21
62.64728
 31
0.0
  0
LINE
  5
135
330
117
100
AcDbEntity
  8
0
  6
CONTINUOUS
 62
     7
100
AcDbLine
 10
149.252064
 20
62.64728
 30
0.0
 11
149.249027
 21
62.647029
 31
0.0
  0
LINE
  5
136
330
117
100
AcDbEntity
  8
0
  6
CONTINUOUS
 62
     7
100
AcDbLine
 10
149.249027
 20
62.647029
 30
0.0
 11
149.245883
 21
62.646771
 31
0.0
  0
LINE
  5
137
330
117
100
AcDbEntity
  8
0
  6
CONTINUOUS
 62
     7
100
AcDbLine
 10
149.245883
 20
62.646771
 30
0.0
 11
149.242628
 21
62.646506
 31
0.0
  0
LINE
  5
138
330
117
100
AcDbEntity
  8
0
  6
CONTINUOUS
 62
     7
100
AcDbLine
 10
149.242628
 20
62.646506
 30
0.0
 11
149.239258
 21
62.646234
 31
0.0
  0
LINE
  5
139
330
117
100
AcDbEntity
  8
0
  6
CONTINUOUS
 62
     7
100
AcDbLine
 10
149.239258
 20
62.646234
 30
0.0
 11
149.235769
 21
62.645954
 31
0.0
  0
LINE
  5
13A
330
117
100
AcDbEntity
  8
0
  6
CONTINUOUS
 62
     7
100
AcDbLine
 10
149.235769
 20
62.645954
 30
0.0
 11
149.233978
 21
62.645811
 31
0.0
  0
LINE
  5
13B
330
117
100
AcDbEntity
  8
0
  6
CONTINUOUS
 62
     7
100
AcDbLine
 10
149.233978
 20
62.645811
 30
0.0
 11
149.232156
 21
62.645666
 31
0.0
  0
LINE
  5
13C
330
117
100
AcDbEntity
  8
0
  6
CONTINUOUS
 62
     7
100
AcDbLine
 10
149.232156
 20
62.645666
 30
0.0
 11
149.230303
 21
62.645519
 31
0.0
  0
LINE
  5
13D
330
117
100
AcDbEntity
  8
0
  6
CONTINUOUS
 62
     7
100
AcDbLine
 10
149.230303
 20
62.645519
 30
0.0
 11
149.228416
 21
62.64537
 31
0.0
  0
LINE
  5
13E
330
117
100
AcDbEntity
  8
0
  6
CONTINUOUS
 62
     7
100
AcDbLine
 10
149.228416
 20
62.64537
 30
0.0
 11
149.226423
 21
62.645213
 31
0.0
  0
LINE
  5
13F
330
117
100
AcDbEntity
  8
0
  6
CONTINUOUS
 62
     7
100
AcDbLine
 10
149.226423
 20
62.645213
 30
0.0
 11
149.224395
 21
62.645054
 31
0.0
  0
LINE
  5
140
330
117
100
AcDbEntity
  8
0
  6
CONTINUOUS
 62
     7
100
AcDbLine
 10
149.224395
 20
62.645054
 30
0.0
 11
149.222332
 21
62.644893
 31
0.0
  0
LINE
  5
141
330
117
100
AcDbEntity
  8
0
  6
CONTINUOUS
 62
     7
100
AcDbLine
 10
149.222332
 20
62.644893
 30
0.0
 11
149.220234
 21
62.644729
 31
0.0
  0
LINE
  5
142
330
117
100
AcDbEntity
  8
0
  6
CONTINUOUS
 62
     7
100
AcDbLine
 10
149.220234
 20
62.644729
 30
0.0
 11
149.218102
 21
62.644564
 31
0.0
  0
LINE
  5
143
330
117
100
AcDbEntity
  8
0
  6
CONTINUOUS
 62
     7
100
AcDbLine
 10
149.218102
 20
62.644564
 30
0.0
 11
149.215936
 21
62.644396
 31
0.0
  0
LINE
  5
144
330
117
100
AcDbEntity
  8
0
  6
CONTINUOUS
 62
     7
100
AcDbLine
 10
149.215936
 20
62.644396
 30
0.0
 11
149.213735
 21
62.644227
 31
0.0
  0
LINE
  5
145
330
117
100
AcDbEntity
  8
0
  6
CONTINUOUS
 62
     7
100
AcDbLine
 10
149.213735
 20
62.644227
 30
0.0
 11
149.211502
 21
62.644055
 31
0.0
  0
LINE
  5
146
330
117
100
AcDbEntity
  8
0
  6
CONTINUOUS
 62
     7
100
AcDbLine
 10
149.211502
 20
62.644055
 30
0.0
 11
149.209234
 21
62.643882
 31
0.0
  0
LINE
  5
147
330
117
100
AcDbEntity
  8
0
  6
CONTINUOUS
 62
     7
100
AcDbLine
 10
149.209234
 20
62.643882
 30
0.0
 11
149.206934
 21
62.643706
 31
0.0
  0
LINE
  5
148
330
117
100
AcDbEntity
  8
0
  6
CONTINUOUS
 62
     7
100
AcDbLine
 10
149.206934
 20
62.643706
 30
0.0
 11
149.204601
 21
62.643529
 31
0.0
  0
LINE
  5
149
330
117
100
AcDbEntity
  8
0
  6
CONTINUOUS
 62
     7
100
AcDbLine
 10
149.204601
 20
62.643529
 30
0.0
 11
149.202236
 21
62.64335
 31
0.0
  0
LINE
  5
14A
330
117
100
AcDbEntity
  8
0
  6
CONTINUOUS
 62
     7
100
AcDbLine
 10
149.202236
 20
62.64335
 30
0.0
 11
149.199838
 21
62.643169
 31
0.0
  0
LINE
  5
14B
330
117
100
AcDbEntity
  8
0
  6
CONTINUOUS
 62
     7
100
AcDbLine
 10
149.199838
 20
62.643169
 30
0.0
 11
149.197408
 21
62.642986
 31
0.0
  0
LINE
  5
14C
330
117
100
AcDbEntity
  8
0
  6
CONTINUOUS
 62
     7
100
AcDbLine
 10
149.197408
 20
62.642986
 30
0.0
 11
149.194947
 21
62.642801
 31
0.0
  0
LINE
  5
14D
330
117
100
AcDbEntity
  8
0
  6
CONTINUOUS
 62
     7
100
AcDbLine
 10
149.194947
 20
62.642801
 30
0.0
 11
149.192454
 21
62.642615
 31
0.0
  0
LINE
  5
14E
330
117
100
AcDbEntity
  8
0
  6
CONTINUOUS
 62
     7
100
AcDbLine
 10
149.192454
 20
62.642615
 30
0.0
 11
149.18993
 21
62.642426
 31
0.0
  0
LINE
  5
14F
330
117
100
AcDbEntity
  8
0
  6
CONTINUOUS
 62
     7
100
AcDbLine
 10
149.18993
 20
62.642426
 30
0.0
 11
149.187375
 21
62.642237
 31
0.0
  0
LINE
  5
150
330
117
100
AcDbEntity
  8
0
  6
CONTINUOUS
 62
     7
100
AcDbLine
 10
149.187375
 20
62.642237
 30
0.0
 11
149.184789
 21
62.642045
 31
0.0
  0
LINE
  5
151
330
117
100
AcDbEntity
  8
0
  6
CONTINUOUS
 62
     7
100
AcDbLine
 10
149.184789
 20
62.642045
 30
0.0
 11
149.182173
 21
62.641852
 31
0.0
  0
LINE
  5
152
330
117
100
AcDbEntity
  8
0
  6
CONTINUOUS
 62
     7
100
AcDbLine
 10
149.182173
 20
62.641852
 30
0.0
 11
149.179527
 21
62.641657
 31
0.0
  0
LINE
  5
153
330
117
100
AcDbEntity
  8
0
  6
CONTINUOUS
 62
     7
100
AcDbLine
 10
149.179527
 20
62.641657
 30
0.0
 11
149.176851
 21
62.641461
 31
0.0
  0
LINE
  5
154
330
117
100
AcDbEntity
  8
0
  6
CONTINUOUS
 62
     7
100
AcDbLine
 10
149.176851
 20
62.641461
 30
0.0
 11
149.174145
 21
62.641263
 31
0.0
  0
LINE
  5
155
330
117
100
AcDbEntity
  8
0
  6
CONTINUOUS
 62
     7
100
AcDbLine
 10
149.174145
 20
62.641263
 30
0.0
 11
149.17141
 21
62.641064
 31
0.0
  0
LINE
  5
156
330
117
100
AcDbEntity
  8
0
  6
CONTINUOUS
 62
     7
100
AcDbLine
 10
149.17141
 20
62.641064
 30
0.0
 11
149.168646
 21
62.640863
 31
0.0
  0
LINE
  5
157
330
117
100
AcDbEntity
  8
0
  6
CONTINUOUS
 62
     7
100
AcDbLine
 10
149.168646
 20
62.640863
 30
0.0
 11
149.165854
 21
62.640661
 31
0.0
  0
LINE
  5
158
330
117
100
AcDbEntity
  8
0
  6
CONTINUOUS
 62
     7
100
AcDbLine
 10
149.165854
 20
62.640661
 30
0.0
 11
149.163032
 21
62.640457
 31
0.0
  0
LINE
  5
159
330
117
100
AcDbEntity
  8
0
  6
CONTINUOUS
 62
     7
100
AcDbLine
 10
149.163032
 20
62.640457
 30
0.0
 11
149.160183
 21
62.640252
 31
0.0
  0
LINE
  5
15A
330
117
100
AcDbEntity
  8
0
  6
CONTINUOUS
 62
     7
100
AcDbLine
 10
149.160183
 20
62.640252
 30
0.0
 11
149.157305
 21
62.640046
 31
0.0
  0
LINE
  5
15B
330
117
100
AcDbEntity
  8
0
  6
CONTINUOUS
 62
     7
100
AcDbLine
 10
149.157305
 20
62.640046
 30
0.0
 11
149.1544
 21
62.639838
 31
0.0
  0
LINE
  5
15C
330
117
100
AcDbEntity
  8
0
  6
CONTINUOUS
 62
     7
100
AcDbLine
 10
149.1544
 20
62.639838
 30
0.0
 11
149.151467
 21
62.639629
 31
0.0
  0
LINE
  5
15D
330
117
100
AcDbEntity
  8
0
  6
CONTINUOUS
 62
     7
100
AcDbLine
 10
149.151467
 20
62.639629
 30
0.0
 11
149.148507
 21
62.639419
 31
0.0
  0
LINE
  5
15E
330
117
100
AcDbEntity
  8
0
  6
CONTINUOUS
 62
     7
100
AcDbLine
 10
149.148507
 20
62.639419
 30
0.0
 11
149.14552
 21
62.639208
 31
0.0
  0
LINE
  5
15F
330
117
100
AcDbEntity
  8
0
  6
CONTINUOUS
 62
     7
100
AcDbLine
 10
149.14552
 20
62.639208
 30
0.0
 11
149.142507
 21
62.638995
 31
0.0
  0
LINE
  5
160
330
117
100
AcDbEntity
  8
0
  6
CONTINUOUS
 62
     7
100
AcDbLine
 10
149.142507
 20
62.638995
 30
0.0
 11
149.139467
 21
62.638781
 31
0.0
  0
LINE
  5
161
330
117
100
AcDbEntity
  8
0
  6
CONTINUOUS
 62
     7
100
AcDbLine
 10
149.139467
 20
62.638781
 30
0.0
 11
149.136401
 21
62.638566
 31
0.0
  0
LINE
  5
162
330
117
100
AcDbEntity
  8
0
  6
CONTINUOUS
 62
     7
100
AcDbLine
 10
149.136401
 20
62.638566
 30
0.0
 11
149.133309
 21
62.63835
 31
0.0
  0
LINE
  5
163
330
117
100
AcDbEntity
  8
0
  6
CONTINUOUS
 62
     7
100
AcDbLine
 10
149.133309
 20
62.63835
 30
0.0
 11
149.130192
 21
62.638133
 31
0.0
  0
LINE
  5
164
330
117
100
AcDbEntity
  8
0
  6
CONTINUOUS
 62
     7
100
AcDbLine
 10
149.130192
 20
62.638133
 30
0.0
 11
149.127049
 21
62.637915
 31
0.0
  0
LINE
  5
165
330
117
100
AcDbEntity
  8
0
  6
CONTINUOUS
 62
     7
100
AcDbLine
 10
149.127049
 20
62.637915
 30
0.0
 11
149.123881
 21
62.637696
 31
0.0
  0
LINE
  5
166
330
117
100
AcDbEntity
  8
0
  6
CONTINUOUS
 62
     7
100
AcDbLine
 10
149.123881
 20
62.637696
 30
0.0
 11
149.120688
 21
62.637476
 31
0.0
  0
LINE
  5
167
330
117
100
AcDbEntity
  8
0
  6
CONTINUOUS
 62
     7
100
AcDbLine
 10
149.120688
 20
62.637476
 30
0.0
 11
149.117471
 21
62.637255
 31
0.0
  0
LINE
  5
168
330
117
100
AcDbEntity
  8
0
  6
CONTINUOUS
 62
     7
100
AcDbLine
 10
149.117471
 20
62.637255
 30
0.0
 11
149.11423
 21
62.637033
 31
0.0
  0
LINE
  5
169
330
117
100
AcDbEntity
  8
0
  6
CONTINUOUS
 62
     7
100
AcDbLine
 10
149.11423
 20
62.637033
 30
0.0
 11
149.110964
 21
62.636811
 31
0.0
  0
LINE
  5
16A
330
117
100
AcDbEntity
  8
0
  6
CONTINUOUS
 62
     7
100
AcDbLine
 10
149.110964
 20
62.636811
 30
0.0
 11
149.107675
 21
62.636587
 31
0.0
  0
LINE
  5
16B
330
117
100
AcDbEntity
  8
0
  6
CONTINUOUS
 62
     7
100
AcDbLine
 10
149.107675
 20
62.636587
 30
0.0
 11
149.104362
 21
62.636363
 31
0.0
  0
LINE
  5
16C
330
117
100
AcDbEntity
  8
0
  6
CONTINUOUS
 62
     7
100
AcDbLine
 10
149.104362
 20
62.636363
 30
0.0
 11
149.101026
 21
62.636137
 31
0.0
  0
LINE
  5
16D
330
117
100
AcDbEntity
  8
0
  6
CONTINUOUS
 62
     7
100
AcDbLine
 10
149.101026
 20
62.636137
 30
0.0
 11
149.097668
 21
62.635912
 31
0.0
  0
LINE
  5
16E
330
117
100
AcDbEntity
  8
0
  6
CONTINUOUS
 62
     7
100
AcDbLine
 10
149.097668
 20
62.635912
 30
0.0
 11
149.094286
 21
62.635685
 31
0.0
  0
LINE
  5
16F
330
117
100
AcDbEntity
  8
0
  6
CONTINUOUS
 62
     7
100
AcDbLine
 10
149.094286
 20
62.635685
 30
0.0
 11
149.090882
 21
62.635458
 31
0.0
  0
LINE
  5
170
330
117
100
AcDbEntity
  8
0
  6
CONTINUOUS
 62
     7
100
AcDbLine
 10
149.090882
 20
62.635458
 30
0.0
 11
149.087456
 21
62.63523
 31
0.0
  0
LINE
  5
171
330
117
100
AcDbEntity
  8
0
  6
CONTINUOUS
 62
     7
100
AcDbLine
 10
149.087456
 20
62.63523
 30
0.0
 11
149.084009
 21
62.635001
 31
0.0
  0
LINE
  5
172
330
117
100
AcDbEntity
  8
0
  6
CONTINUOUS
 62
     7
100
AcDbLine
 10
149.084009
 20
62.635001
 30
0.0
 11
149.080539
 21
62.634772
 31
0.0
  0
LINE
  5
173
330
117
100
AcDbEntity
  8
0
  6
CONTINUOUS
 62
     7
100
AcDbLine
 10
149.080539
 20
62.634772
 30
0.0
 11
149.077049
 21
62.634542
 31
0.0
  0
LINE
  5
174
330
117
100
AcDbEntity
  8
0
  6
CONTINUOUS
 62
     7
100
AcDbLine
 10
149.077049
 20
62.634542
 30
0.0
 11
149.073537
 21
62.634312
 31
0.0
  0
LINE
  5
175
330
117
100
AcDbEntity
  8
0
  6
CONTINUOUS
 62
     7
100
AcDbLine
 10
149.073537
 20
62.634312
 30
0.0
 11
149.070004
 21
62.634081
 31
0.0
  0
LINE
  5
176
330
117
100
AcDbEntity
  8
0
  6
CONTINUOUS
 62
     7
100
AcDbLine
 10
149.070004
 20
62.634081
 30
0.0
 11
149.066451
 21
62.63385
 31
0.0
  0
LINE
  5
177
330
117
100
AcDbEntity
  8
0
  6
CONTINUOUS
 62
     7
100
AcDbLine
 10
149.066451
 20
62.63385
 30
0.0
 11
149.062878
 21
62.633618
 31
0.0
  0
LINE
  5
178
330
117
100
AcDbEntity
  8
0
  6
CONTINUOUS
 62
     7
100
AcDbLine
 10
149.062878
 20
62.633618
 30
0.0
 11
149.059284
 21
62.633386
 31
0.0
  0
LINE
  5
179
330
117
100
AcDbEntity
  8
0
  6
CONTINUOUS
 62
     7
100
AcDbLine
 10
149.059284
 20
62.633386
 30
0.0
 11
149.055671
 21
62.633153
 31
0.0
  0
LINE
  5
17A
330
117
100
AcDbEntity
  8
0
  6
CONTINUOUS
 62
     7
100
AcDbLine
 10
149.055671
 20
62.633153
 30
0.0
 11
149.052039
 21
62.632921
 31
0.0
  0
LINE
  5
17B
330
117
100
AcDbEntity
  8
0
  6
CONTINUOUS
 62
     7
100
AcDbLine
 10
149.052039
 20
62.632921
 30
0.0
 11
149.048387
 21
62.632687
 31
0.0
  0
LINE
  5
17C
330
117
100
AcDbEntity
  8
0
  6
CONTINUOUS
 62
     7
100
AcDbLine
 10
149.048387
 20
62.632687
 30
0.0
 11
149.044716
 21
62.632454
 31
0.0
  0
LINE
  5
17D
330
117
100
AcDbEntity
  8
0
  6
CONTINUOUS
 62
     7
100
AcDbLine
 10
149.044716
 20
62.632454
 30
0.0
 11
149.041027
 21
62.63222
 31
0.0
  0
LINE
  5
17E
330
117
100
AcDbEntity
  8
0
  6
CONTINUOUS
 62
     7
100
AcDbLine
 10
149.041027
 20
62.63222
 30
0.0
 11
149.037331
 21
62.631987
 31
0.0
  0
LINE
  5
17F
330
117
100
AcDbEntity
  8
0
  6
CONTINUOUS
 62
     7
100
AcDbLine
 10
149.037331
 20
62.631987
 30
0.0
 11
149.033618
 21
62.631754
 31
0.0
  0
LINE
  5
180
330
117
100
AcDbEntity
  8
0
  6
CONTINUOUS
 62
     7
100
AcDbLine
 10
149.033618
 20
62.631754
 30
0.0
 11
149.029886
 21
62.631521
 31
0.0
  0
LINE
  5
181
330
117
100
AcDbEntity
  8
0
  6
CONTINUOUS
 62
     7
100
AcDbLine
 10
149.029886
 20
62.631521
 30
0.0
 11
149.026136
 21
62.631287
 31
0.0
  0
LINE
  5
182
330
117
100
AcDbEntity
  8
0
  6
CONTINUOUS
 62
     7
100
AcDbLine
 10
149.026136
 20
62.631287
 30
0.0
 11
149.022368
 21
62.631054
 31
0.0
  0
LINE
  5
183
330
117
100
AcDbEntity
  8
0
  6
CONTINUOUS
 62
     7
100
AcDbLine
 10
149.022368
 20
62.631054
 30
0.0
 11
149.018582
 21
62.63082
 31
0.0
  0
LINE
  5
184
330
117
100
AcDbEntity
  8
0
  6
CONTINUOUS
 62
     7
100
AcDbLine
 10
149.018582
 20
62.63082
 30
0.0
 11
149.014778
 21
62.630586
 31
0.0
  0
LINE
  5
185
330
117
100
AcDbEntity
  8
0
  6
CONTINUOUS
 62
     7
100
AcDbLine
 10
149.014778
 20
62.630586
 30
0.0
 11
149.010956
 21
62.630353
 31
0.0
  0
LINE
  5
186
330
117
100
AcDbEntity
  8
0
  6
CONTINUOUS
 62
     7
100
AcDbLine
 10
149.010956
 20
62.630353
 30
0.0
 11
149.007116
 21
62.630119
 31
0.0
  0
LINE
  5
187
330
117
100
AcDbEntity
  8
0
  6
CONTINUOUS
 62
     7
100
AcDbLine
 10
149.007116
 20
62.630119
 30
0.0
 11
149.003259
 21
62.629886
 31
0.0
  0
LINE
  5
188
330
117
100
AcDbEntity
  8
0
  6
CONTINUOUS
 62
     7
100
AcDbLine
 10
149.003259
 20
62.629886
 30
0.0
 11
148.999383
 21
62.629653
 31
0.0
  0
LINE
  5
189
330
117
100
AcDbEntity
  8
0
  6
CONTINUOUS
 62
     7
100
AcDbLine
 10
148.999383
 20
62.629653
 30
0.0
 11
148.99549
 21
62.62942
 31
0.0
  0
LINE
  5
18A
330
117
100
AcDbEntity
  8
0
  6
CONTINUOUS
 62
     7
100
AcDbLine
 10
148.99549
 20
62.62942
 30
0.0
 11
148.99158
 21
62.629187
 31
0.0
  0
LINE
  5
18B
330
117
100
AcDbEntity
  8
0
  6
CONTINUOUS
 62
     7
100
AcDbLine
 10
148.99158
 20
62.629187
 30
0.0
 11
148.987651
 21
62.628955
 31
0.0
  0
LINE
  5
18C
330
117
100
AcDbEntity
  8
0
  6
CONTINUOUS
 62
     7
100
AcDbLine
 10
148.987651
 20
62.628955
 30
0.0
 11
148.983706
 21
62.628722
 31
0.0
  0
LINE
  5
18D
330
117
100
AcDbEntity
  8
0
  6
CONTINUOUS
 62
     7
100
AcDbLine
 10
148.983706
 20
62.628722
 30
0.0
 11
148.979742
 21
62.62849
 31
0.0
  0
LINE
  5
18E
330
117
100
AcDbEntity
  8
0
  6
CONTINUOUS
 62
     7
100
AcDbLine
 10
148.979742
 20
62.62849
 30
0.0
 11
148.975762
 21
62.628259
 31
0.0
  0
LINE
  5
18F
330
117
100
AcDbEntity
  8
0
  6
CONTINUOUS
 62
     7
100
AcDbLine
 10
148.975762
 20
62.628259
 30
0.0
 11
148.971763
 21
62.628028
 31
0.0
  0
LINE
  5
190
330
117
100
AcDbEntity
  8
0
  6
CONTINUOUS
 62
     7
100
AcDbLine
 10
148.971763
 20
62.628028
 30
0.0
 11
148.967748
 21
62.627797
 31
0.0
  0
LINE
  5
191
330
117
100
AcDbEntity
  8
0
  6
CONTINUOUS
 62
     7
100
AcDbLine
 10
148.967748
 20
62.627797
 30
0.0
 11
148.963715
 21
62.627567
 31
0.0
  0
LINE
  5
192
330
117
100
AcDbEntity
  8
0
  6
CONTINUOUS
 62
     7
100
AcDbLine
 10
148.963715
 20
62.627567
 30
0.0
 11
148.959665
 21
62.627337
 31
0.0
  0
LINE
  5
193
330
117
100
AcDbEntity
  8
0
  6
CONTINUOUS
 62
     7
100
AcDbLine
 10
148.959665
 20
62.627337
 30
0.0
 11
148.955598
 21
62.627108
 31
0.0
  0
LINE
  5
194
330
117
100
AcDbEntity
  8
0
  6
CONTINUOUS
 62
     7
100
AcDbLine
 10
148.955598
 20
62.627108
 30
0.0
 11
148.951514
 21
62.62688
 31
0.0
  0
LINE
  5
195
330
117
100
AcDbEntity
  8
0
  6
CONTINUOUS
 62
     7
100
AcDbLine
 10
148.951514
 20
62.62688
 30
0.0
 11
148.947413
 21
62.626652
 31
0.0
  0
LINE
  5
196
330
117
100
AcDbEntity
  8
0
  6
CONTINUOUS
 62
     7
100
AcDbLine
 10
148.947413
 20
62.626652
 30
0.0
 11
148.943295
 21
62.626424
 31
0.0
  0
LINE
  5
197
330
117
100
AcDbEntity
  8
0
  6
CONTINUOUS
 62
     7
100
AcDbLine
 10
148.943295
 20
62.626424
 30
0.0
 11
148.939159
 21
62.626198
 31
0.0
  0
LINE
  5
198
330
117
100
AcDbEntity
  8
0
  6
CONTINUOUS
 62
     7
100
AcDbLine
 10
148.939159
 20
62.626198
 30
0.0
 11
148.935007
 21
62.625972
 31
0.0
  0
LINE
  5
199
330
117
100
AcDbEntity
  8
0
  6
CONTINUOUS
 62
     7
100
AcDbLine
 10
148.935007
 20
62.625972
 30
0.0
 11
148.930838
 21
62.625747
 31
0.0
  0
LINE
  5
19A
330
117
100
AcDbEntity
  8
0
  6
CONTINUOUS
 62
     7
100
AcDbLine
 10
148.930838
 20
62.625747
 30
0.0
 11
148.928748
 21
62.625635
 31
0.0
  0
LINE
  5
19B
330
117
100
AcDbEntity
  8
0
  6
CONTINUOUS
 62
     7
100
AcDbLine
 10
148.928748
 20
62.625635
 30
0.0
 11
148.926653
 21
62.625523
 31
0.0
  0
LINE
  5
19C
330
117
100
AcDbEntity
  8
0
  6
CONTINUOUS
 62
     7
100
AcDbLine
 10
148.926653
 20
62.625523
 30
0.0
 11
148.924553
 21
62.625411
 31
0.0
  0
LINE
  5
19D
330
117
100
AcDbEntity
  8
0
  6
CONTINUOUS
 62
     7
100
AcDbLine
 10
148.924553
 20
62.625411
 30
0.0
 11
148.92245
 21
62.625299
 31
0.0
  0
LINE
  5
19E
330
117
100
AcDbEntity
  8
0
  6
CONTINUOUS
 62
     7
100
AcDbLine
 10
148.92245
 20
62.625299
 30
0.0
 11
148.920342
 21
62.625188
 31
0.0
  0
LINE
  5
19F
330
117
100
AcDbEntity
  8
0
  6
CONTINUOUS
 62
     7
100
AcDbLine
 10
148.920342
 20
62.625188
 30
0.0
 11
148.918231
 21
62.625077
 31
0.0
  0
LINE
  5
1A0
330
117
100
AcDbEntity
  8
0
  6
CONTINUOUS
 62
     7
100
AcDbLine
 10
148.918231
 20
62.625077
 30
0.0
 11
148.916115
 21
62.624966
 31
0.0
  0
LINE
  5
1A1
330
117
100
AcDbEntity
  8
0
  6
CONTINUOUS
 62
     7
100
AcDbLine
 10
148.916115
 20
62.624966
 30
0.0
 11
148.913995
 21
62.624855
 31
0.0
  0
LINE
  5
1A2
330
117
100
AcDbEntity
  8
0
  6
CONTINUOUS
 62
     7
100
AcDbLine
 10
148.913995
 20
62.624855
 30
0.0
 11
148.911871
 21
62.624745
 31
0.0
  0
LINE
  5
1A3
330
117
100
AcDbEntity
  8
0
  6
CONTINUOUS
 62
     7
100
AcDbLine
 10
148.911871
 20
62.624745
 30
0.0
 11
148.909742
 21
62.624635
 31
0.0
  0
LINE
  5
1A4
330
117
100
AcDbEntity
  8
0
  6
CONTINUOUS
 62
     7
100
AcDbLine
 10
148.909742
 20
62.624635
 30
0.0
 11
148.90761
 21
62.624525
 31
0.0
  0
LINE
  5
1A5
330
117
100
AcDbEntity
  8
0
  6
CONTINUOUS
 62
     7
100
AcDbLine
 10
148.90761
 20
62.624525
 30
0.0
 11
148.905473
 21
62.624415
 31
0.0
  0
LINE
  5
1A6
330
117
100
AcDbEntity
  8
0
  6
CONTINUOUS
 62
     7
100
AcDbLine
 10
148.905473
 20
62.624415
 30
0.0
 11
148.903333
 21
62.624306
 31
0.0
  0
LINE
  5
1A7
330
117
100
AcDbEntity
  8
0
  6
CONTINUOUS
 62
     7
100
AcDbLine
 10
148.903333
 20
62.624306
 30
0.0
 11
148.901188
 21
62.624197
 31
0.0
  0
LINE
  5
1A8
330
117
100
AcDbEntity
  8
0
  6
CONTINUOUS
 62
     7
100
AcDbLine
 10
148.901188
 20
62.624197
 30
0.0
 11
148.899039
 21
62.624088
 31
0.0
  0
LINE
  5
1A9
330
117
100
AcDbEntity
  8
0
  6
CONTINUOUS
 62
     7
100
AcDbLine
 10
148.899039
 20
62.624088
 30
0.0
 11
148.896886
 21
62.623979
 31
0.0
  0
LINE
  5
1AA
330
117
100
AcDbEntity
  8
0
  6
CONTINUOUS
 62
     7
100
AcDbLine
 10
148.896886
 20
62.623979
 30
0.0
 11
148.894729
 21
62.623871
 31
0.0
  0
LINE
  5
1AB
330
117
100
AcDbEntity
  8
0
  6
CONTINUOUS
 62
     7
100
AcDbLine
 10
148.894729
 20
62.623871
 30
0.0
 11
148.892568
 21
62.623763
 31
0.0
  0
LINE
  5
1AC
330
117
100
AcDbEntity
  8
0
  6
CONTINUOUS
 62
     7
100
AcDbLine
 10
148.892568
 20
62.623763
 30
0.0
 11
148.890402
 21
62.623655
 31
0.0
  0
LINE
  5
1AD
330
117
100
AcDbEntity
  8
0
  6
CONTINUOUS
 62
     7
100
AcDbLine
 10
148.890402
 20
62.623655
 30
0.0
 11
148.888233
 21
62.623547
 31
0.0
  0
LINE
  5
1AE
330
117
100
AcDbEntity
  8
0
  6
CONTINUOUS
 62
     7
100
AcDbLine
 10
148.888233
 20
62.623547
 30
0.0
 11
148.88606
 21
62.62344
 31
0.0
  0
LINE
  5
1AF
330
117
100
AcDbEntity
  8
0
  6
CONTINUOUS
 62
     7
100
AcDbLine
 10
148.88606
 20
62.62344
 30
0.0
 11
148.883882
 21
62.623333
 31
0.0
  0
LINE
  5
1B0
330
117
100
AcDbEntity
  8
0
  6
CONTINUOUS
 62
     7
100
AcDbLine
 10
148.883882
 20
62.623333
 30
0.0
 11
148.881701
 21
62.623227
 31
0.0
  0
LINE
  5
1B1
330
117
100
AcDbEntity
  8
0
  6
CONTINUOUS
 62
     7
100
AcDbLine
 10
148.881701
 20
62.623227
 30
0.0
 11
148.879515
 21
62.62312
 31
0.0
  0
LINE
  5
1B2
330
117
100
AcDbEntity
  8
0
  6
CONTINUOUS
 62
     7
100
AcDbLine
 10
148.879515
 20
62.62312
 30
0.0
 11
148.877325
 21
62.623014
 31
0.0
  0
LINE
  5
1B3
330
117
100
AcDbEntity
  8
0
  6
CONTINUOUS
 62
     7
100
AcDbLine
 10
148.877325
 20
62.623014
 30
0.0
 11
148.875132
 21
62.622909
 31
0.0
  0
LINE
  5
1B4
330
117
100
AcDbEntity
  8
0
  6
CONTINUOUS
 62
     7
100
AcDbLine
 10
148.875132
 20
62.622909
 30
0.0
 11
148.872934
 21
62.622803
 31
0.0
  0
LINE
  5
1B5
330
117
100
AcDbEntity
  8
0
  6
CONTINUOUS
 62
     7
100
AcDbLine
 10
148.872934
 20
62.622803
 30
0.0
 11
148.870732
 21
62.622698
 31
0.0
  0
LINE
  5
1B6
330
117
100
AcDbEntity
  8
0
  6
CONTINUOUS
 62
     7
100
AcDbLine
 10
148.870732
 20
62.622698
 30
0.0
 11
148.868527
 21
62.622594
 31
0.0
  0
LINE
  5
1B7
330
117
100
AcDbEntity
  8
0
  6
CONTINUOUS
 62
     7
100
AcDbLine
 10
148.868527
 20
62.622594
 30
0.0
 11
148.866317
 21
62.622489
 31
0.0
  0
LINE
  5
1B8
330
117
100
AcDbEntity
  8
0
  6
CONTINUOUS
 62
     7
100
AcDbLine
 10
148.866317
 20
62.622489
 30
0.0
 11
148.864103
 21
62.622385
 31
0.0
  0
LINE
  5
1B9
330
117
100
AcDbEntity
  8
0
  6
CONTINUOUS
 62
     7
100
AcDbLine
 10
148.864103
 20
62.622385
 30
0.0
 11
148.861885
 21
62.622282
 31
0.0
  0
LINE
  5
1BA
330
117
100
AcDbEntity
  8
0
  6
CONTINUOUS
 62
     7
100
AcDbLine
 10
148.861885
 20
62.622282
 30
0.0
 11
148.859664
 21
62.622178
 31
0.0
  0
LINE
  5
1BB
330
117
100
AcDbEntity
  8
0
  6
CONTINUOUS
 62
     7
100
AcDbLine
 10
148.859664
 20
62.622178
 30
0.0
 11
148.857438
 21
62.622075
 31
0.0
  0
LINE
  5
1BC
330
117
100
AcDbEntity
  8
0
  6
CONTINUOUS
 62
     7
100
AcDbLine
 10
148.857438
 20
62.622075
 30
0.0
 11
148.855208
 21
62.621973
 31
0.0
  0
LINE
  5
1BD
330
117
100
AcDbEntity
  8
0
  6
CONTINUOUS
 62
     7
100
AcDbLine
 10
148.855208
 20
62.621973
 30
0.0
 11
148.852975
 21
62.62187
 31
0.0
  0
LINE
  5
1BE
330
117
100
AcDbEntity
  8
0
  6
CONTINUOUS
 62
     7
100
AcDbLine
 10
148.852975
 20
62.62187
 30
0.0
 11
148.850737
 21
62.621768
 31
0.0
  0
LINE
  5
1BF
330
117
100
AcDbEntity
  8
0
  6
CONTINUOUS
 62
     7
100
AcDbLine
 10
148.850737
 20
62.621768
 30
0.0
 11
148.848495
 21
62.621667
 31
0.0
  0
LINE
  5
1C0
330
117
100
AcDbEntity
  8
0
  6
CONTINUOUS
 62
     7
100
AcDbLine
 10
148.848495
 20
62.621667
 30
0.0
 11
148.84625
 21
62.621566
 31
0.0
  0
LINE
  5
1C1
330
117
100
AcDbEntity
  8
0
  6
CONTINUOUS
 62
     7
100
AcDbLine
 10
148.84625
 20
62.621566
 30
0.0
 11
148.844
 21
62.621465
 31
0.0
  0
LINE
  5
1C2
330
117
100
AcDbEntity
  8
0
  6
CONTINUOUS
 62
     7
100
AcDbLine
 10
148.844
 20
62.621465
 30
0.0
 11
148.841747
 21
62.621365
 31
0.0
  0
LINE
  5
1C3
330
117
100
AcDbEntity
  8
0
  6
CONTINUOUS
 62
     7
100
AcDbLine
 10
148.841747
 20
62.621365
 30
0.0
 11
148.83949
 21
62.621265
 31
0.0
  0
LINE
  5
1C4
330
117
100
AcDbEntity
  8
0
  6
CONTINUOUS
 62
     7
100
AcDbLine
 10
148.83949
 20
62.621265
 30
0.0
 11
148.837228
 21
62.621165
 31
0.0
  0
LINE
  5
1C5
330
117
100
AcDbEntity
  8
0
  6
CONTINUOUS
 62
     7
100
AcDbLine
 10
148.837228
 20
62.621165
 30
0.0
 11
148.834963
 21
62.621066
 31
0.0
  0
LINE
  5
1C6
330
117
100
AcDbEntity
  8
0
  6
CONTINUOUS
 62
     7
100
AcDbLine
 10
148.834963
 20
62.621066
 30
0.0
 11
148.832694
 21
62.620967
 31
0.0
  0
LINE
  5
1C7
330
117
100
AcDbEntity
  8
0
  6
CONTINUOUS
 62
     7
100
AcDbLine
 10
148.832694
 20
62.620967
 30
0.0
 11
148.830421
 21
62.620869
 31
0.0
  0
LINE
  5
1C8
330
117
100
AcDbEntity
  8
0
  6
CONTINUOUS
 62
     7
100
AcDbLine
 10
148.830421
 20
62.620869
 30
0.0
 11
148.828144
 21
62.620771
 31
0.0
  0
LINE
  5
1C9
330
117
100
AcDbEntity
  8
0
  6
CONTINUOUS
 62
     7
100
AcDbLine
 10
148.828144
 20
62.620771
 30
0.0
 11
148.825864
 21
62.620673
 31
0.0
  0
LINE
  5
1CA
330
117
100
AcDbEntity
  8
0
  6
CONTINUOUS
 62
     7
100
AcDbLine
 10
148.825864
 20
62.620673
 30
0.0
 11
148.823579
 21
62.620576
 31
0.0
  0
LINE
  5
1CB
330
117
100
AcDbEntity
  8
0
  6
CONTINUOUS
 62
     7
100
AcDbLine
 10
148.823579
 20
62.620576
 30
0.0
 11
148.82129
 21
62.62048
 31
0.0
  0
LINE
  5
1CC
330
117
100
AcDbEntity
  8
0
  6
CONTINUOUS
 62
     7
100
AcDbLine
 10
148.82129
 20
62.62048
 30
0.0
 11
148.818998
 21
62.620383
 31
0.0
  0
LINE
  5
1CD
330
117
100
AcDbEntity
  8
0
  6
CONTINUOUS
 62
     7
100
AcDbLine
 10
148.818998
 20
62.620383
 30
0.0
 11
148.816702
 21
62.620287
 31
0.0
  0
LINE
  5
1CE
330
117
100
AcDbEntity
  8
0
  6
CONTINUOUS
 62
     7
100
AcDbLine
 10
148.816702
 20
62.620287
 30
0.0
 11
148.814402
 21
62.620192
 31
0.0
  0
LINE
  5
1CF
330
117
100
AcDbEntity
  8
0
  6
CONTINUOUS
 62
     7
100
AcDbLine
 10
148.814402
 20
62.620192
 30
0.0
 11
148.812098
 21
62.620097
 31
0.0
  0
LINE
  5
1D0
330
117
100
AcDbEntity
  8
0
  6
CONTINUOUS
 62
     7
100
AcDbLine
 10
148.812098
 20
62.620097
 30
0.0
 11
148.80979
 21
62.620003
 31
0.0
  0
LINE
  5
1D1
330
117
100
AcDbEntity
  8
0
  6
CONTINUOUS
 62
     7
100
AcDbLine
 10
148.80979
 20
62.620003
 30
0.0
 11
148.807478
 21
62.619909
 31
0.0
  0
LINE
  5
1D2
330
117
100
AcDbEntity
  8
0
  6
CONTINUOUS
 62
     7
100
AcDbLine
 10
148.807478
 20
62.619909
 30
0.0
 11
148.805163
 21
62.619815
 31
0.0
  0
LINE
  5
1D3
330
117
100
AcDbEntity
  8
0
  6
CONTINUOUS
 62
     7
100
AcDbLine
 10
148.805163
 20
62.619815
 30
0.0
 11
148.802843
 21
62.619722
 31
0.0
  0
LINE
  5
1D4
330
117
100
AcDbEntity
  8
0
  6
CONTINUOUS
 62
     7
100
AcDbLine
 10
148.802843
 20
62.619722
 30
0.0
 11
148.80052
 21
62.619629
 31
0.0
  0
LINE
  5
1D5
330
117
100
AcDbEntity
  8
0
  6
CONTINUOUS
 62
     7
100
AcDbLine
 10
148.80052
 20
62.619629
 30
0.0
 11
148.798193
 21
62.619537
 31
0.0
  0
LINE
  5
1D6
330
117
100
AcDbEntity
  8
0
  6
CONTINUOUS
 62
     7
100
AcDbLine
 10
148.798193
 20
62.619537
 30
0.0
 11
148.795862
 21
62.619445
 31
0.0
  0
LINE
  5
1D7
330
117
100
AcDbEntity
  8
0
  6
CONTINUOUS
 62
     7
100
AcDbLine
 10
148.795862
 20
62.619445
 30
0.0
 11
148.793528
 21
62.619354
 31
0.0
  0
LINE
  5
1D8
330
117
100
AcDbEntity
  8
0
  6
CONTINUOUS
 62
     7
100
AcDbLine
 10
148.793528
 20
62.619354
 30
0.0
 11
148.791189
 21
62.619263
 31
0.0
  0
LINE
  5
1D9
330
117
100
AcDbEntity
  8
0
  6
CONTINUOUS
 62
     7
100
AcDbLine
 10
148.791189
 20
62.619263
 30
0.0
 11
148.788847
 21
62.619173
 31
0.0
  0
LINE
  5
1DA
330
117
100
AcDbEntity
  8
0
  6
CONTINUOUS
 62
     7
100
AcDbLine
 10
148.788847
 20
62.619173
 30
0.0
 11
148.786501
 21
62.619083
 31
0.0
  0
LINE
  5
1DB
330
117
100
AcDbEntity
  8
0
  6
CONTINUOUS
 62
     7
100
AcDbLine
 10
148.786501
 20
62.619083
 30
0.0
 11
148.784152
 21
62.618994
 31
0.0
  0
LINE
  5
1DC
330
117
100
AcDbEntity
  8
0
  6
CONTINUOUS
 62
     7
100
AcDbLine
 10
148.784152
 20
62.618994
 30
0.0
 11
148.781798
 21
62.618905
 31
0.0
  0
LINE
  5
1DD
330
117
100
AcDbEntity
  8
0
  6
CONTINUOUS
 62
     7
100
AcDbLine
 10
148.781798
 20
62.618905
 30
0.0
 11
148.779441
 21
62.618817
 31
0.0
  0
LINE
  5
1DE
330
117
100
AcDbEntity
  8
0
  6
CONTINUOUS
 62
     7
100
AcDbLine
 10
148.779441
 20
62.618817
 30
0.0
 11
148.77708
 21
62.61873
 31
0.0
  0
LINE
  5
1DF
330
117
100
AcDbEntity
  8
0
  6
CONTINUOUS
 62
     7
100
AcDbLine
 10
148.77708
 20
62.61873
 30
0.0
 11
148.774715
 21
62.618642
 31
0.0
  0
LINE
  5
1E0
330
117
100
AcDbEntity
  8
0
  6
CONTINUOUS
 62
     7
100
AcDbLine
 10
148.774715
 20
62.618642
 30
0.0
 11
148.772347
 21
62.618556
 31
0.0
  0
LINE
  5
1E1
330
117
100
AcDbEntity
  8
0
  6
CONTINUOUS
 62
     7
100
AcDbLine
 10
148.772347
 20
62.618556
 30
0.0
 11
148.769975
 21
62.618469
 31
0.0
  0
LINE
  5
1E2
330
117
100
AcDbEntity
  8
0
  6
CONTINUOUS
 62
     7
100
AcDbLine
 10
148.769975
 20
62.618469
 30
0.0
 11
148.767698
 21
62.618387
 31
0.0
  0
LINE
  5
1E3
330
117
100
AcDbEntity
  8
0
  6
CONTINUOUS
 62
     7
100
AcDbLine
 10
148.767698
 20
62.618387
 30
0.0
 11
148.765419
 21
62.618306
 31
0.0
  0
LINE
  5
1E4
330
117
100
AcDbEntity
  8
0
  6
CONTINUOUS
 62
     7
100
AcDbLine
 10
148.765419
 20
62.618306
 30
0.0
 11
148.763136
 21
62.618225
 31
0.0
  0
LINE
  5
1E5
330
117
100
AcDbEntity
  8
0
  6
CONTINUOUS
 62
     7
100
AcDbLine
 10
148.763136
 20
62.618225
 30
0.0
 11
148.760849
 21
62.618144
 31
0.0
  0
LINE
  5
1E6
330
117
100
AcDbEntity
  8
0
  6
CONTINUOUS
 62
     7
100
AcDbLine
 10
148.760849
 20
62.618144
 30
0.0
 11
148.75856
 21
62.618064
 31
0.0
  0
LINE
  5
1E7
330
117
100
AcDbEntity
  8
0
  6
CONTINUOUS
 62
     7
100
AcDbLine
 10
148.75856
 20
62.618064
 30
0.0
 11
148.756267
 21
62.617985
 31
0.0
  0
LINE
  5
1E8
330
117
100
AcDbEntity
  8
0
  6
CONTINUOUS
 62
     7
100
AcDbLine
 10
148.756267
 20
62.617985
 30
0.0
 11
148.753971
 21
62.617906
 31
0.0
  0
LINE
  5
1E9
330
117
100
AcDbEntity
  8
0
  6
CONTINUOUS
 62
     7
100
AcDbLine
 10
148.753971
 20
62.617906
 30
0.0
 11
148.751671
 21
62.617827
 31
0.0
  0
LINE
  5
1EA
330
117
100
AcDbEntity
  8
0
  6
CONTINUOUS
 62
     7
100
AcDbLine
 10
148.751671
 20
62.617827
 30
0.0
 11
148.749369
 21
62.617749
 31
0.0
  0
LINE
  5
1EB
330
117
100
AcDbEntity
  8
0
  6
CONTINUOUS
 62
     7
100
AcDbLine
 10
148.749369
 20
62.617749
 30
0.0
 11
148.747063
 21
62.617672
 31
0.0
  0
LINE
  5
1EC
330
117
100
AcDbEntity
  8
0
  6
CONTINUOUS
 62
     7
100
AcDbLine
 10
148.747063
 20
62.617672
 30
0.0
 11
148.744754
 21
62.617595
 31
0.0
  0
LINE
  5
1ED
330
117
100
AcDbEntity
  8
0
  6
CONTINUOUS
 62
     7
100
AcDbLine
 10
148.744754
 20
62.617595
 30
0.0
 11
148.742442
 21
62.617519
 31
0.0
  0
LINE
  5
1EE
330
117
100
AcDbEntity
  8
0
  6
CONTINUOUS
 62
     7
100
AcDbLine
 10
148.742442
 20
62.617519
 30
0.0
 11
148.740127
 21
62.617443
 31
0.0
  0
LINE
  5
1EF
330
117
100
AcDbEntity
  8
0
  6
CONTINUOUS
 62
     7
100
AcDbLine
 10
148.740127
 20
62.617443
 30
0.0
 11
148.737809
 21
62.617368
 31
0.0
  0
LINE
  5
1F0
330
117
100
AcDbEntity
  8
0
  6
CONTINUOUS
 62
     7
100
AcDbLine
 10
148.737809
 20
62.617368
 30
0.0
 11
148.735488
 21
62.617293
 31
0.0
  0
LINE
  5
1F1
330
117
100
AcDbEntity
  8
0
  6
CONTINUOUS
 62
     7
100
AcDbLine
 10
148.735488
 20
62.617293
 30
0.0
 11
148.733164
 21
62.617219
 31
0.0
  0
LINE
  5
1F2
330
117
100
AcDbEntity
  8
0
  6
CONTINUOUS
 62
     7
100
AcDbLine
 10
148.733164
 20
62.617219
 30
0.0
 11
148.730837
 21
62.617146
 31
0.0
  0
LINE
  5
1F3
330
117
100
AcDbEntity
  8
0
  6
CONTINUOUS
 62
     7
100
AcDbLine
 10
148.730837
 20
62.617146
 30
0.0
 11
148.728508
 21
62.617073
 31
0.0
  0
LINE
  5
1F4
330
117
100
AcDbEntity
  8
0
  6
CONTINUOUS
 62
     7
100
AcDbLine
 10
148.728508
 20
62.617073
 30
0.0
 11
148.726175
 21
62.617001
 31
0.0
  0
LINE
  5
1F5
330
117
100
AcDbEntity
  8
0
  6
CONTINUOUS
 62
     7
100
AcDbLine
 10
148.726175
 20
62.617001
 30
0.0
 11
148.723839
 21
62.616929
 31
0.0
  0
LINE
  5
1F6
330
117
100
AcDbEntity
  8
0
  6
CONTINUOUS
 62
     7
100
AcDbLine
 10
148.723839
 20
62.616929
 30
0.0
 11
148.721501
 21
62.616858
 31
0.0
  0
LINE
  5
1F7
330
117
100
AcDbEntity
  8
0
  6
CONTINUOUS
 62
     7
100
AcDbLine
 10
148.721501
 20
62.616858
 30
0.0
 11
148.71916
 21
62.616787
 31
0.0
  0
LINE
  5
1F8
330
117
100
AcDbEntity
  8
0
  6
CONTINUOUS
 62
     7
100
AcDbLine
 10
148.71916
 20
62.616787
 30
0.0
 11
148.716816
 21
62.616717
 31
0.0
  0
LINE
  5
1F9
330
117
100
AcDbEntity
  8
0
  6
CONTINUOUS
 62
     7
100
AcDbLine
 10
148.716816
 20
62.616717
 30
0.0
 11
148.714469
 21
62.616648
 31
0.0
  0
LINE
  5
1FA
330
117
100
AcDbEntity
  8
0
  6
CONTINUOUS
 62
     7
100
AcDbLine
 10
148.714469
 20
62.616648
 30
0.0
 11
148.71212
 21
62.616579
 31
0.0
  0
LINE
  5
1FB
330
117
100
AcDbEntity
  8
0
  6
CONTINUOUS
 62
     7
100
AcDbLine
 10
148.71212
 20
62.616579
 30
0.0
 11
148.709768
 21
62.616511
 31
0.0
  0
LINE
  5
1FC
330
117
100
AcDbEntity
  8
0
  6
CONTINUOUS
 62
     7
100
AcDbLine
 10
148.709768
 20
62.616511
 30
0.0
 11
148.707413
 21
62.616444
 31
0.0
  0
LINE
  5
1FD
330
117
100
AcDbEntity
  8
0
  6
CONTINUOUS
 62
     7
100
AcDbLine
 10
148.707413
 20
62.616444
 30
0.0
 11
148.705056
 21
62.616377
 31
0.0
  0
LINE
  5
1FE
330
117
100
AcDbEntity
  8
0
  6
CONTINUOUS
 62
     7
100
AcDbLine
 10
148.705056
 20
62.616377
 30
0.0
 11
148.702696
 21
62.616311
 31
0.0
  0
LINE
  5
1FF
330
117
100
AcDbEntity
  8
0
  6
CONTINUOUS
 62
     7
100
AcDbLine
 10
148.702696
 20
62.616311
 30
0.0
 11
148.700333
 21
62.616246
 31
0.0
  0
LINE
  5
200
330
117
100
AcDbEntity
  8
0
  6
CONTINUOUS
 62
     7
100
AcDbLine
 10
148.700333
 20
62.616246
 30
0.0
 11
148.697968
 21
62.616181
 31
0.0
  0
LINE
  5
201
330
117
100
AcDbEntity
  8
0
  6
CONTINUOUS
 62
     7
100
AcDbLine
 10
148.697968
 20
62.616181
 30
0.0
 11
148.695601
 21
62.616117
 31
0.0
  0
LINE
  5
202
330
117
100
AcDbEntity
  8
0
  6
CONTINUOUS
 62
     7
100
AcDbLine
 10
148.695601
 20
62.616117
 30
0.0
 11
148.693231
 21
62.616053
 31
0.0
  0
LINE
  5
203
330
117
100
AcDbEntity
  8
0
  6
CONTINUOUS
 62
     7
100
AcDbLine
 10
148.693231
 20
62.616053
 30
0.0
 11
148.690859
 21
62.615991
 31
0.0
  0
LINE
  5
204
330
117
100
AcDbEntity
  8
0
  6
CONTINUOUS
 62
     7
100
AcDbLine
 10
148.690859
 20
62.615991
 30
0.0
 11
148.688484
 21
62.615928
 31
0.0
  0
LINE
  5
205
330
117
100
AcDbEntity
  8
0
  6
CONTINUOUS
 62
     7
100
AcDbLine
 10
148.688484
 20
62.615928
 30
0.0
 11
148.686107
 21
62.615867
 31
0.0
  0
LINE
  5
206
330
117
100
AcDbEntity
  8
0
  6
CONTINUOUS
 62
     7
100
AcDbLine
 10
148.686107
 20
62.615867
 30
0.0
 11
148.683727
 21
62.615806
 31
0.0
  0
LINE
  5
207
330
117
100
AcDbEntity
  8
0
  6
CONTINUOUS
 62
     7
100
AcDbLine
 10
148.683727
 20
62.615806
 30
0.0
 11
148.681345
 21
62.615746
 31
0.0
  0
LINE
  5
208
330
117
100
AcDbEntity
  8
0
  6
CONTINUOUS
 62
     7
100
AcDbLine
 10
148.681345
 20
62.615746
 30
0.0
 11
148.678961
 21
62.615687
 31
0.0
  0
LINE
  5
209
330
117
100
AcDbEntity
  8
0
  6
CONTINUOUS
 62
     7
100
AcDbLine
 10
148.678961
 20
62.615687
 30
0.0
 11
148.676575
 21
62.615628
 31
0.0
  0
LINE
  5
20A
330
117
100
AcDbEntity
  8
0
  6
CONTINUOUS
 62
     7
100
AcDbLine
 10
148.676575
 20
62.615628
 30
0.0
 11
148.674187
 21
62.61557
 31
0.0
  0
LINE
  5
20B
330
117
100
AcDbEntity
  8
0
  6
CONTINUOUS
 62
     7
100
AcDbLine
 10
148.674187
 20
62.61557
 30
0.0
 11
148.671796
 21
62.615513
 31
0.0
  0
LINE
  5
20C
330
117
100
AcDbEntity
  8
0
  6
CONTINUOUS
 62
     7
100
AcDbLine
 10
148.671796
 20
62.615513
 30
0.0
 11
148.669403
 21
62.615457
 31
0.0
  0
LINE
  5
20D
330
117
100
AcDbEntity
  8
0
  6
CONTINUOUS
 62
     7
100
AcDbLine
 10
148.669403
 20
62.615457
 30
0.0
 11
148.667008
 21
62.615401
 31
0.0
  0
LINE
  5
20E
330
117
100
AcDbEntity
  8
0
  6
CONTINUOUS
 62
     7
100
AcDbLine
 10
148.667008
 20
62.615401
 30
0.0
 11
148.664611
 21
62.615346
 31
0.0
  0
LINE
  5
20F
330
117
100
AcDbEntity
  8
0
  6
CONTINUOUS
 62
     7
100
AcDbLine
 10
148.664611
 20
62.615346
 30
0.0
 11
148.662212
 21
62.615292
 31
0.0
  0
LINE
  5
210
330
117
100
AcDbEntity
  8
0
  6
CONTINUOUS
 62
     7
100
AcDbLine
 10
148.662212
 20
62.615292
 30
0.0
 11
148.65981
 21
62.615238
 31
0.0
  0
LINE
  5
211
330
117
100
AcDbEntity
  8
0
  6
CONTINUOUS
 62
     7
100
AcDbLine
 10
148.65981
 20
62.615238
 30
0.0
 11
148.657407
 21
62.615185
 31
0.0
  0
LINE
  5
212
330
117
100
AcDbEntity
  8
0
  6
CONTINUOUS
 62
     7
100
AcDbLine
 10
148.657407
 20
62.615185
 30
0.0
 11
148.655002
 21
62.615133
 31
0.0
  0
LINE
  5
213
330
117
100
AcDbEntity
  8
0
  6
CONTINUOUS
 62
     7
100
AcDbLine
 10
148.655002
 20
62.615133
 30
0.0
 11
148.652595
 21
62.615082
 31
0.0
  0
LINE
  5
214
330
117
100
AcDbEntity
  8
0
  6
CONTINUOUS
 62
     7
100
AcDbLine
 10
148.652595
 20
62.615082
 30
0.0
 11
148.650186
 21
62.615032
 31
0.0
  0
LINE
  5
215
330
117
100
AcDbEntity
  8
0
  6
CONTINUOUS
 62
     7
100
AcDbLine
 10
148.650186
 20
62.615032
 30
0.0
 11
148.647775
 21
62.614982
 31
0.0
  0
LINE
  5
216
330
117
100
AcDbEntity
  8
0
  6
CONTINUOUS
 62
     7
100
AcDbLine
 10
148.647775
 20
62.614982
 30
0.0
 11
148.645362
 21
62.614933
 31
0.0
  0
LINE
  5
217
330
117
100
AcDbEntity
  8
0
  6
CONTINUOUS
 62
     7
100
AcDbLine
 10
148.645362
 20
62.614933
 30
0.0
 11
148.642947
 21
62.614885
 31
0.0
  0
LINE
  5
218
330
117
100
AcDbEntity
  8
0
  6
CONTINUOUS
 62
     7
100
AcDbLine
 10
148.642947
 20
62.614885
 30
0.0
 11
148.64053
 21
62.614838
 31
0.0
  0
LINE
  5
219
330
117
100
AcDbEntity
  8
0
  6
CONTINUOUS
 62
     7
100
AcDbLine
 10
148.64053
 20
62.614838
 30
0.0
 11
148.638112
 21
62.614791
 31
0.0
  0
LINE
  5
21A
330
117
100
AcDbEntity
  8
0
  6
CONTINUOUS
 62
     7
100
AcDbLine
 10
148.638112
 20
62.614791
 30
0.0
 11
148.635692
 21
62.614745
 31
0.0
  0
LINE
  5
21B
330
117
100
AcDbEntity
  8
0
  6
CONTINUOUS
 62
     7
100
AcDbLine
 10
148.635692
 20
62.614745
 30
0.0
 11
148.63327
 21
62.6147
 31
0.0
  0
LINE
  5
21C
330
117
100
AcDbEntity
  8
0
  6
CONTINUOUS
 62
     7
100
AcDbLine
 10
148.63327
 20
62.6147
 30
0.0
 11
148.630847
 21
62.614656
 31
0.0
  0
LINE
  5
21D
330
117
100
AcDbEntity
  8
0
  6
CONTINUOUS
 62
     7
100
AcDbLine
 10
148.630847
 20
62.614656
 30
0.0
 11
148.628422
 21
62.614613
 31
0.0
  0
LINE
  5
21E
330
117
100
AcDbEntity
  8
0
  6
CONTINUOUS
 62
     7
100
AcDbLine
 10
148.628422
 20
62.614613
 30
0.0
 11
148.625995
 21
62.61457
 31
0.0
  0
LINE
  5
21F
330
117
100
AcDbEntity
  8
0
  6
CONTINUOUS
 62
     7
100
AcDbLine
 10
148.625995
 20
62.61457
 30
0.0
 11
148.623567
 21
62.614529
 31
0.0
  0
LINE
  5
220
330
117
100
AcDbEntity
  8
0
  6
CONTINUOUS
 62
     7
100
AcDbLine
 10
148.623567
 20
62.614529
 30
0.0
 11
148.621137
 21
62.614488
 31
0.0
  0
LINE
  5
221
330
117
100
AcDbEntity
  8
0
  6
CONTINUOUS
 62
     7
100
AcDbLine
 10
148.621137
 20
62.614488
 30
0.0
 11
148.618706
 21
62.614448
 31
0.0
  0
LINE
  5
222
330
117
100
AcDbEntity
  8
0
  6
CONTINUOUS
 62
     7
100
AcDbLine
 10
148.618706
 20
62.614448
 30
0.0
 11
148.616211
 21
62.614408
 31
0.0
  0
LINE
  5
223
330
117
100
AcDbEntity
  8
0
  6
CONTINUOUS
 62
     7
100
AcDbLine
 10
148.616211
 20
62.614408
 30
0.0
 11
148.613715
 21
62.614369
 31
0.0
  0
LINE
  5
224
330
117
100
AcDbEntity
  8
0
  6
CONTINUOUS
 62
     7
100
AcDbLine
 10
148.613715
 20
62.614369
 30
0.0
 11
148.611217
 21
62.61433
 31
0.0
  0
LINE
  5
225
330
117
100
AcDbEntity
  8
0
  6
CONTINUOUS
 62
     7
100
AcDbLine
 10
148.611217
 20
62.61433
 30
0.0
 11
148.608717
 21
62.614293
 31
0.0
  0
LINE
  5
226
330
117
100
AcDbEntity
  8
0
  6
CONTINUOUS
 62
     7
100
AcDbLine
 10
148.608717
 20
62.614293
 30
0.0
 11
148.606216
 21
62.614256
 31
0.0
  0
LINE
  5
227
330
117
100
AcDbEntity
  8
0
  6
CONTINUOUS
 62
     7
100
AcDbLine
 10
148.606216
 20
62.614256
 30
0.0
 11
148.603714
 21
62.61422
 31
0.0
  0
LINE
  5
228
330
117
100
AcDbEntity
  8
0
  6
CONTINUOUS
 62
     7
100
AcDbLine
 10
148.603714
 20
62.61422
 30
0.0
 11
148.60121
 21
62.614185
 31
0.0
  0
LINE
  5
229
330
117
100
AcDbEntity
  8
0
  6
CONTINUOUS
 62
     7
100
AcDbLine
 10
148.60121
 20
62.614185
 30
0.0
 11
148.598705
 21
62.614151
 31
0.0
  0
LINE
  5
22A
330
117
100
AcDbEntity
  8
0
  6
CONTINUOUS
 62
     7
100
AcDbLine
 10
148.598705
 20
62.614151
 30
0.0
 11
148.596199
 21
62.614117
 31
0.0
  0
LINE
  5
22B
330
117
100
AcDbEntity
  8
0
  6
CONTINUOUS
 62
     7
100
AcDbLine
 10
148.596199
 20
62.614117
 30
0.0
 11
148.593691
 21
62.614085
 31
0.0
  0
LINE
  5
22C
330
117
100
AcDbEntity
  8
0
  6
CONTINUOUS
 62
     7
100
AcDbLine
 10
148.593691
 20
62.614085
 30
0.0
 11
148.591182
 21
62.614053
 31
0.0
  0
LINE
  5
22D
330
117
100
AcDbEntity
  8
0
  6
CONTINUOUS
 62
     7
100
AcDbLine
 10
148.591182
 20
62.614053
 30
0.0
 11
148.588671
 21
62.614022
 31
0.0
  0
LINE
  5
22E
330
117
100
AcDbEntity
  8
0
  6
CONTINUOUS
 62
     7
100
AcDbLine
 10
148.588671
 20
62.614022
 30
0.0
 11
148.586159
 21
62.613991
 31
0.0
  0
LINE
  5
22F
330
117
100
AcDbEntity
  8
0
  6
CONTINUOUS
 62
     7
100
AcDbLine
 10
148.586159
 20
62.613991
 30
0.0
 11
148.583646
 21
62.613961
 31
0.0
  0
LINE
  5
230
330
117
100
AcDbEntity
  8
0
  6
CONTINUOUS
 62
     7
100
AcDbLine
 10
148.583646
 20
62.613961
 30
0.0
 11
148.581132
 21
62.613932
 31
0.0
  0
LINE
  5
231
330
117
100
AcDbEntity
  8
0
  6
CONTINUOUS
 62
     7
100
AcDbLine
 10
148.581132
 20
62.613932
 30
0.0
 11
148.578616
 21
62.613904
 31
0.0
  0
LINE
  5
232
330
117
100
AcDbEntity
  8
0
  6
CONTINUOUS
 62
     7
100
AcDbLine
 10
148.578616
 20
62.613904
 30
0.0
 11
148.5761
 21
62.613876
 31
0.0
  0
LINE
  5
233
330
117
100
AcDbEntity
  8
0
  6
CONTINUOUS
 62
     7
100
AcDbLine
 10
148.5761
 20
62.613876
 30
0.0
 11
148.573582
 21
62.613849
 31
0.0
  0
LINE
  5
234
330
117
100
AcDbEntity
  8
0
  6
CONTINUOUS
 62
     7
100
AcDbLine
 10
148.573582
 20
62.613849
 30
0.0
 11
148.571063
 21
62.613823
 31
0.0
  0
LINE
  5
235
330
117
100
AcDbEntity
  8
0
  6
CONTINUOUS
 62
     7
100
AcDbLine
 10
148.571063
 20
62.613823
 30
0.0
 11
148.568543
 21
62.613797
 31
0.0
  0
LINE
  5
236
330
117
100
AcDbEntity
  8
0
  6
CONTINUOUS
 62
     7
100
AcDbLine
 10
148.568543
 20
62.613797
 30
0.0
 11
148.566021
 21
62.613771
 31
0.0
  0
LINE
  5
237
330
117
100
AcDbEntity
  8
0
  6
CONTINUOUS
 62
     7
100
AcDbLine
 10
148.566021
 20
62.613771
 30
0.0
 11
148.563499
 21
62.613747
 31
0.0
  0
LINE
  5
238
330
117
100
AcDbEntity
  8
0
  6
CONTINUOUS
 62
     7
100
AcDbLine
 10
148.563499
 20
62.613747
 30
0.0
 11
148.560976
 21
62.613723
 31
0.0
  0
LINE
  5
239
330
117
100
AcDbEntity
  8
0
  6
CONTINUOUS
 62
     7
100
AcDbLine
 10
148.560976
 20
62.613723
 30
0.0
 11
148.558451
 21
62.613699
 31
0.0
  0
LINE
  5
23A
330
117
100
AcDbEntity
  8
0
  6
CONTINUOUS
 62
     7
100
AcDbLine
 10
148.558451
 20
62.613699
 30
0.0
 11
148.555926
 21
62.613677
 31
0.0
  0
LINE
  5
23B
330
117
100
AcDbEntity
  8
0
  6
CONTINUOUS
 62
     7
100
AcDbLine
 10
148.555926
 20
62.613677
 30
0.0
 11
148.5534
 21
62.613654
 31
0.0
  0
LINE
  5
23C
330
117
100
AcDbEntity
  8
0
  6
CONTINUOUS
 62
     7
100
AcDbLine
 10
148.5534
 20
62.613654
 30
0.0
 11
148.550873
 21
62.613632
 31
0.0
  0
LINE
  5
23D
330
117
100
AcDbEntity
  8
0
  6
CONTINUOUS
 62
     7
100
AcDbLine
 10
148.550873
 20
62.613632
 30
0.0
 11
148.548344
 21
62.613611
 31
0.0
  0
LINE
  5
23E
330
117
100
AcDbEntity
  8
0
  6
CONTINUOUS
 62
     7
100
AcDbLine
 10
148.548344
 20
62.613611
 30
0.0
 11
148.545815
 21
62.61359
 31
0.0
  0
LINE
  5
23F
330
117
100
AcDbEntity
  8
0
  6
CONTINUOUS
 62
     7
100
AcDbLine
 10
148.545815
 20
62.61359
 30
0.0
 11
148.543286
 21
62.61357
 31
0.0
  0
LINE
  5
240
330
117
100
AcDbEntity
  8
0
  6
CONTINUOUS
 62
     7
100
AcDbLine
 10
148.543286
 20
62.61357
 30
0.0
 11
148.540755
 21
62.61355
 31
0.0
  0
LINE
  5
241
330
117
100
AcDbEntity
  8
0
  6
CONTINUOUS
 62
     7
100
AcDbLine
 10
148.540755
 20
62.61355
 30
0.0
 11
148.538223
 21
62.613531
 31
0.0
  0
LINE
  5
242
330
117
100
AcDbEntity
  8
0
  6
CONTINUOUS
 62
     7
100
AcDbLine
 10
148.538223
 20
62.613531
 30
0.0
 11
148.535691
 21
62.613512
 31
0.0
  0
LINE
  5
243
330
117
100
AcDbEntity
  8
0
  6
CONTINUOUS
 62
     7
100
AcDbLine
 10
148.535691
 20
62.613512
 30
0.0
 11
148.533158
 21
62.613493
 31
0.0
  0
LINE
  5
244
330
117
100
AcDbEntity
  8
0
  6
CONTINUOUS
 62
     7
100
AcDbLine
 10
148.533158
 20
62.613493
 30
0.0
 11
148.530624
 21
62.613475
 31
0.0
  0
LINE
  5
245
330
117
100
AcDbEntity
  8
0
  6
CONTINUOUS
 62
     7
100
AcDbLine
 10
148.530624
 20
62.613475
 30
0.0
 11
148.528089
 21
62.613457
 31
0.0
  0
LINE
  5
246
330
117
100
AcDbEntity
  8
0
  6
CONTINUOUS
 62
     7
100
AcDbLine
 10
148.528089
 20
62.613457
 30
0.0
 11
148.525554
 21
62.61344
 31
0.0
  0
LINE
  5
247
330
117
100
AcDbEntity
  8
0
  6
CONTINUOUS
 62
     7
100
AcDbLine
 10
148.525554
 20
62.61344
 30
0.0
 11
148.523018
 21
62.613423
 31
0.0
  0
LINE
  5
248
330
117
100
AcDbEntity
  8
0
  6
CONTINUOUS
 62
     7
100
AcDbLine
 10
148.523018
 20
62.613423
 30
0.0
 11
148.520482
 21
62.613407
 31
0.0
  0
LINE
  5
249
330
117
100
AcDbEntity
  8
0
  6
CONTINUOUS
 62
     7
100
AcDbLine
 10
148.520482
 20
62.613407
 30
0.0
 11
148.517945
 21
62.61339
 31
0.0
  0
LINE
  5
24A
330
117
100
AcDbEntity
  8
0
  6
CONTINUOUS
 62
     7
100
AcDbLine
 10
148.517945
 20
62.61339
 30
0.0
 11
148.512868
 21
62.613359
 31
0.0
  0
LINE
  5
24B
330
117
100
AcDbEntity
  8
0
  6
CONTINUOUS
 62
     7
100
AcDbLine
 10
148.512868
 20
62.613359
 30
0.0
 11
148.50779
 21
62.613329
 31
0.0
  0
LINE
  5
24C
330
117
100
AcDbEntity
  8
0
  6
CONTINUOUS
 62
     7
100
AcDbLine
 10
148.50779
 20
62.613329
 30
0.0
 11
148.50271
 21
62.6133
 31
0.0
  0
LINE
  5
24D
330
117
100
AcDbEntity
  8
0
  6
CONTINUOUS
 62
     7
100
AcDbLine
 10
148.50271
 20
62.6133
 30
0.0
 11
148.497628
 21
62.613272
 31
0.0
  0
LINE
  5
24E
330
117
100
AcDbEntity
  8
0
  6
CONTINUOUS
 62
     7
100
AcDbLine
 10
148.497628
 20
62.613272
 30
0.0
 11
148.492544
 21
62.613244
 31
0.0
  0
LINE
  5
24F
330
117
100
AcDbEntity
  8
0
  6
CONTINUOUS
 62
     7
100
AcDbLine
 10
148.492544
 20
62.613244
 30
0.0
 11
148.487459
 21
62.613218
 31
0.0
  0
LINE
  5
250
330
117
100
AcDbEntity
  8
0
  6
CONTINUOUS
 62
     7
100
AcDbLine
 10
148.487459
 20
62.613218
 30
0.0
 11
148.482373
 21
62.613192
 31
0.0
  0
LINE
  5
251
330
117
100
AcDbEntity
  8
0
  6
CONTINUOUS
 62
     7
100
AcDbLine
 10
148.482373
 20
62.613192
 30
0.0
 11
148.477286
 21
62.613167
 31
0.0
  0
LINE
  5
252
330
117
100
AcDbEntity
  8
0
  6
CONTINUOUS
 62
     7
100
AcDbLine
 10
148.477286
 20
62.613167
 30
0.0
 11
148.472198
 21
62.613142
 31
0.0
  0
LINE
  5
253
330
117
100
AcDbEntity
  8
0
  6
CONTINUOUS
 62
     7
100
AcDbLine
 10
148.472198
 20
62.613142
 30
0.0
 11
148.467109
 21
62.613118
 31
0.0
  0
LINE
  5
254
330
117
100
AcDbEntity
  8
0
  6
CONTINUOUS
 62
     7
100
AcDbLine
 10
148.467109
 20
62.613118
 30
0.0
 11
148.456931
 21
62.61307
 31
0.0
  0
ENDBLK
  5
119
330
117
100
AcDbEntity
  8
0
100
AcDbBlockEnd
  0
BLOCK
  5
256
330
255
100
AcDbEntity
  8
0
100
AcDbBlockBegin
  2
BLKF013
 70
     0
 71
     0
 10
0.0
 20
0.0
 30
0.0
  3
BLKF013
  1

  0
LINE
  5
259
330
255
100
AcDbEntity
  8
0
  6
CONTINUOUS
 62
     7
100
AcDbLine
 10
147.623062
 20
43.750682
 30
0.0
 11
147.62298
 21
43.750674
 31
0.0
  0
LINE
  5
25A
330
255
100
AcDbEntity
  8
0
  6
CONTINUOUS
 62
     7
100
AcDbLine
 10
147.62298
 20
43.750674
 30
0.0
 11
147.638604
 21
43.752106
 31
0.0
  0
LINE
  5
25B
330
255
100
AcDbEntity
  8
0
  6
CONTINUOUS
 62
     7
100
AcDbLine
 10
147.638604
 20
43.752106
 30
0.0
 11
147.685491
 21
43.756004
 31
0.0
  0
LINE
  5
25C
330
255
100
AcDbEntity
  8
0
  6
CONTINUOUS
 62
     7
100
AcDbLine
 10
147.685491
 20
43.756004
 30
0.0
 11
147.873014
 21
43.769166
 31
0.0
  0
LINE
  5
25D
330
255
100
AcDbEntity
  8
0
  6
CONTINUOUS
 62
     7
100
AcDbLine
 10
147.873014
 20
43.769166
 30
0.0
 11
148.143753
 21
43.782865
 31
0.0
  0
LINE
  5
25E
330
255
100
AcDbEntity
  8
0
  6
CONTINUOUS
 62
     7
100
AcDbLine
 10
148.143753
 20
43.782865
 30
0.0
 11
148.295186
 21
43.786882
 31
0.0
  0
LINE
  5
25F
330
255
100
AcDbEntity
  8
0
  6
CONTINUOUS
 62
     7
100
AcDbLine
 10
148.295186
 20
43.786882
 30
0.0
 11
148.457326
 21
43.788278
 31
0.0
  0
LINE
  5
260
330
255
100
AcDbEntity
  8
0
  6
CONTINUOUS
 62
     7
100
AcDbLine
 10
148.457326
 20
43.788278
 30
0.0
 11
148.618959
 21
43.786887
 31
0.0
  0
LINE
  5
261
330
255
100
AcDbEntity
  8
0
  6
CONTINUOUS
 62
     7
100
AcDbLine
 10
148.618959
 20
43.786887
 30
0.0
 11
148.770183
 21
43.782858
 31
0.0
  0
LINE
  5
262
330
255
100
AcDbEntity
  8
0
  6
CONTINUOUS
 62
     7
100
AcDbLine
 10
148.770183
 20
43.782858
 30
0.0
 11
149.041384
 21
43.769103
 31
0.0
  0
LINE
  5
263
330
255
100
AcDbEntity
  8
0
  6
CONTINUOUS
 62
     7
100
AcDbLine
 10
149.041384
 20
43.769103
 30
0.0
 11
149.228565
 21
43.755973
 31
0.0
  0
LINE
  5
264
330
255
100
AcDbEntity
  8
0
  6
CONTINUOUS
 62
     7
100
AcDbLine
 10
149.228565
 20
43.755973
 30
0.0
 11
149.275333
 21
43.75209
 31
0.0
  0
LINE
  5
265
330
255
100
AcDbEntity
  8
0
  6
CONTINUOUS
 62
     7
100
AcDbLine
 10
149.275333
 20
43.75209
 30
0.0
 11
149.29089
 21
43.750674
 31
0.0
  0
ENDBLK
  5
257
330
255
100
AcDbEntity
  8
0
100
AcDbBlockEnd
  0
BLOCK
  5
26A
330
269
100
AcDbEntity
  8
0
100
AcDbBlockBegin
  2
BLKF014
 70
     0
 71
     0
 10
0.0
 20
0.0
 30
0.0
  3
BLKF014
  1

  0
LINE
  5
26D
330
269
100
AcDbEntity
  8
0
  6
CONTINUOUS
 62
     7
100
AcDbLine
 10
70.033322
 20
62.633536
 30
0.0
 11
70.056036
 21
62.632175
 31
0.0
  0
LINE
  5
26E
330
269
100
AcDbEntity
  8
0
  6
CONTINUOUS
 62
     7
100
AcDbLine
 10
70.056036
 20
62.632175
 30
0.0
 11
70.078931
 21
62.630835
 31
0.0
  0
LINE
  5
26F
330
269
100
AcDbEntity
  8
0
  6
CONTINUOUS
 62
     7
100
AcDbLine
 10
70.078931
 20
62.630835
 30
0.0
 11
70.090503
 21
62.630179
 31
0.0
  0
LINE
  5
270
330
269
100
AcDbEntity
  8
0
  6
CONTINUOUS
 62
     7
100
AcDbLine
 10
70.090503
 20
62.630179
 30
0.0
 11
70.102188
 21
62.629536
 31
0.0
  0
LINE
  5
271
330
269
100
AcDbEntity
  8
0
  6
CONTINUOUS
 62
     7
100
AcDbLine
 10
70.102188
 20
62.629536
 30
0.0
 11
70.114008
 21
62.628909
 31
0.0
  0
LINE
  5
272
330
269
100
AcDbEntity
  8
0
  6
CONTINUOUS
 62
     7
100
AcDbLine
 10
70.114008
 20
62.628909
 30
0.0
 11
70.125987
 21
62.6283
 31
0.0
  0
LINE
  5
273
330
269
100
AcDbEntity
  8
0
  6
CONTINUOUS
 62
     7
100
AcDbLine
 10
70.125987
 20
62.6283
 30
0.0
 11
70.138146
 21
62.627711
 31
0.0
  0
LINE
  5
274
330
269
100
AcDbEntity
  8
0
  6
CONTINUOUS
 62
     7
100
AcDbLine
 10
70.138146
 20
62.627711
 30
0.0
 11
70.150509
 21
62.627146
 31
0.0
  0
LINE
  5
275
330
269
100
AcDbEntity
  8
0
  6
CONTINUOUS
 62
     7
100
AcDbLine
 10
70.150509
 20
62.627146
 30
0.0
 11
70.163098
 21
62.626607
 31
0.0
  0
LINE
  5
276
330
269
100
AcDbEntity
  8
0
  6
CONTINUOUS
 62
     7
100
AcDbLine
 10
70.163098
 20
62.626607
 30
0.0
 11
70.175936
 21
62.626096
 31
0.0
  0
LINE
  5
277
330
269
100
AcDbEntity
  8
0
  6
CONTINUOUS
 62
     7
100
AcDbLine
 10
70.175936
 20
62.626096
 30
0.0
 11
70.189045
 21
62.625617
 31
0.0
  0
LINE
  5
278
330
269
100
AcDbEntity
  8
0
  6
CONTINUOUS
 62
     7
100
AcDbLine
 10
70.189045
 20
62.625617
 30
0.0
 11
70.202448
 21
62.625171
 31
0.0
  0
LINE
  5
279
330
269
100
AcDbEntity
  8
0
  6
CONTINUOUS
 62
     7
100
AcDbLine
 10
70.202448
 20
62.625171
 30
0.0
 11
70.216167
 21
62.624762
 31
0.0
  0
LINE
  5
27A
330
269
100
AcDbEntity
  8
0
  6
CONTINUOUS
 62
     7
100
AcDbLine
 10
70.216167
 20
62.624762
 30
0.0
 11
70.230226
 21
62.624392
 31
0.0
  0
LINE
  5
27B
330
269
100
AcDbEntity
  8
0
  6
CONTINUOUS
 62
     7
100
AcDbLine
 10
70.230226
 20
62.624392
 30
0.0
 11
70.238404
 21
62.624196
 31
0.0
  0
ENDBLK
  5
26B
330
269
100
AcDbEntity
  8
0
100
AcDbBlockEnd
  0
BLOCK
  5
27D
330
27C
100
AcDbEntity
  8
0
100
AcDbBlockBegin
  2
BLKF015
 70
     0
 71
     0
 10
0.0
 20
0.0
 30
0.0
  3
BLKF015
  1

  0
LINE
  5
280
330
27C
100
AcDbEntity
  8
0
  6
CONTINUOUS
 62
     7
100
AcDbLine
 10
71.429126
 20
62.650454
 30
0.0
 11
71.431738
 21
62.650659
 31
0.0
  0
LINE
  5
281
330
27C
100
AcDbEntity
  8
0
  6
CONTINUOUS
 62
     7
100
AcDbLine
 10
71.431738
 20
62.650659
 30
0.0
 11
71.433565
 21
62.650792
 31
0.0
  0
LINE
  5
282
330
27C
100
AcDbEntity
  8
0
  6
CONTINUOUS
 62
     7
100
AcDbLine
 10
71.433565
 20
62.650792
 30
0.0
 11
71.424236
 21
62.650048
 31
0.0
  0
LINE
  5
283
330
27C
100
AcDbEntity
  8
0
  6
CONTINUOUS
 62
     7
100
AcDbLine
 10
71.424236
 20
62.650048
 30
0.0
 11
71.406547
 21
62.648665
 31
0.0
  0
LINE
  5
284
330
27C
100
AcDbEntity
  8
0
  6
CONTINUOUS
 62
     7
100
AcDbLine
 10
71.406547
 20
62.648665
 30
0.0
 11
71.395443
 21
62.647809
 31
0.0
  0
LINE
  5
285
330
27C
100
AcDbEntity
  8
0
  6
CONTINUOUS
 62
     7
100
AcDbLine
 10
71.395443
 20
62.647809
 30
0.0
 11
71.383298
 21
62.646882
 31
0.0
  0
LINE
  5
286
330
27C
100
AcDbEntity
  8
0
  6
CONTINUOUS
 62
     7
100
AcDbLine
 10
71.383298
 20
62.646882
 30
0.0
 11
71.370382
 21
62.64591
 31
0.0
  0
LINE
  5
287
330
27C
100
AcDbEntity
  8
0
  6
CONTINUOUS
 62
     7
100
AcDbLine
 10
71.370382
 20
62.64591
 30
0.0
 11
71.356717
 21
62.644897
 31
0.0
  0
LINE
  5
288
330
27C
100
AcDbEntity
  8
0
  6
CONTINUOUS
 62
     7
100
AcDbLine
 10
71.356717
 20
62.644897
 30
0.0
 11
71.342245
 21
62.643846
 31
0.0
  0
LINE
  5
289
330
27C
100
AcDbEntity
  8
0
  6
CONTINUOUS
 62
     7
100
AcDbLine
 10
71.342245
 20
62.643846
 30
0.0
 11
71.326909
 21
62.642756
 31
0.0
  0
LINE
  5
28A
330
27C
100
AcDbEntity
  8
0
  6
CONTINUOUS
 62
     7
100
AcDbLine
 10
71.326909
 20
62.642756
 30
0.0
 11
71.318899
 21
62.642197
 31
0.0
  0
LINE
  5
28B
330
27C
100
AcDbEntity
  8
0
  6
CONTINUOUS
 62
     7
100
AcDbLine
 10
71.318899
 20
62.642197
 30
0.0
 11
71.310652
 21
62.641628
 31
0.0
  0
LINE
  5
28C
330
27C
100
AcDbEntity
  8
0
  6
CONTINUOUS
 62
     7
100
AcDbLine
 10
71.310652
 20
62.641628
 30
0.0
 11
71.30216
 21
62.64105
 31
0.0
  0
LINE
  5
28D
330
27C
100
AcDbEntity
  8
0
  6
CONTINUOUS
 62
     7
100
AcDbLine
 10
71.30216
 20
62.64105
 30
0.0
 11
71.293417
 21
62.640463
 31
0.0
  0
LINE
  5
28E
330
27C
100
AcDbEntity
  8
0
  6
CONTINUOUS
 62
     7
100
AcDbLine
 10
71.293417
 20
62.640463
 30
0.0
 11
71.284414
 21
62.639867
 31
0.0
  0
LINE
  5
28F
330
27C
100
AcDbEntity
  8
0
  6
CONTINUOUS
 62
     7
100
AcDbLine
 10
71.284414
 20
62.639867
 30
0.0
 11
71.275146
 21
62.639262
 31
0.0
  0
LINE
  5
290
330
27C
100
AcDbEntity
  8
0
  6
CONTINUOUS
 62
     7
100
AcDbLine
 10
71.275146
 20
62.639262
 30
0.0
 11
71.265604
 21
62.638648
 31
0.0
  0
LINE
  5
291
330
27C
100
AcDbEntity
  8
0
  6
CONTINUOUS
 62
     7
100
AcDbLine
 10
71.265604
 20
62.638648
 30
0.0
 11
71.255782
 21
62.638024
 31
0.0
  0
LINE
  5
292
330
27C
100
AcDbEntity
  8
0
  6
CONTINUOUS
 62
     7
100
AcDbLine
 10
71.255782
 20
62.638024
 30
0.0
 11
71.245374
 21
62.637374
 31
0.0
  0
LINE
  5
293
330
27C
100
AcDbEntity
  8
0
  6
CONTINUOUS
 62
     7
100
AcDbLine
 10
71.245374
 20
62.637374
 30
0.0
 11
71.234669
 21
62.636716
 31
0.0
  0
LINE
  5
294
330
27C
100
AcDbEntity
  8
0
  6
CONTINUOUS
 62
     7
100
AcDbLine
 10
71.234669
 20
62.636716
 30
0.0
 11
71.223678
 21
62.636051
 31
0.0
  0
LINE
  5
295
330
27C
100
AcDbEntity
  8
0
  6
CONTINUOUS
 62
     7
100
AcDbLine
 10
71.223678
 20
62.636051
 30
0.0
 11
71.212408
 21
62.635381
 31
0.0
  0
LINE
  5
296
330
27C
100
AcDbEntity
  8
0
  6
CONTINUOUS
 62
     7
100
AcDbLine
 10
71.212408
 20
62.635381
 30
0.0
 11
71.200869
 21
62.634707
 31
0.0
  0
LINE
  5
297
330
27C
100
AcDbEntity
  8
0
  6
CONTINUOUS
 62
     7
100
AcDbLine
 10
71.200869
 20
62.634707
 30
0.0
 11
71.189068
 21
62.63403
 31
0.0
  0
LINE
  5
298
330
27C
100
AcDbEntity
  8
0
  6
CONTINUOUS
 62
     7
100
AcDbLine
 10
71.189068
 20
62.63403
 30
0.0
 11
71.177015
 21
62.633353
 31
0.0
  0
LINE
  5
299
330
27C
100
AcDbEntity
  8
0
  6
CONTINUOUS
 62
     7
100
AcDbLine
 10
71.177015
 20
62.633353
 30
0.0
 11
71.164719
 21
62.632675
 31
0.0
  0
LINE
  5
29A
330
27C
100
AcDbEntity
  8
0
  6
CONTINUOUS
 62
     7
100
AcDbLine
 10
71.164719
 20
62.632675
 30
0.0
 11
71.152188
 21
62.632
 31
0.0
  0
LINE
  5
29B
330
27C
100
AcDbEntity
  8
0
  6
CONTINUOUS
 62
     7
100
AcDbLine
 10
71.152188
 20
62.632
 30
0.0
 11
71.139431
 21
62.631327
 31
0.0
  0
LINE
  5
29C
330
27C
100
AcDbEntity
  8
0
  6
CONTINUOUS
 62
     7
100
AcDbLine
 10
71.139431
 20
62.631327
 30
0.0
 11
71.126457
 21
62.630659
 31
0.0
  0
LINE
  5
29D
330
27C
100
AcDbEntity
  8
0
  6
CONTINUOUS
 62
     7
100
AcDbLine
 10
71.126457
 20
62.630659
 30
0.0
 11
71.113274
 21
62.629996
 31
0.0
  0
LINE
  5
29E
330
27C
100
AcDbEntity
  8
0
  6
CONTINUOUS
 62
     7
100
AcDbLine
 10
71.113274
 20
62.629996
 30
0.0
 11
71.099892
 21
62.62934
 31
0.0
  0
LINE
  5
29F
330
27C
100
AcDbEntity
  8
0
  6
CONTINUOUS
 62
     7
100
AcDbLine
 10
71.099892
 20
62.62934
 30
0.0
 11
71.086318
 21
62.628693
 31
0.0
  0
LINE
  5
2A0
330
27C
100
AcDbEntity
  8
0
  6
CONTINUOUS
 62
     7
100
AcDbLine
 10
71.086318
 20
62.628693
 30
0.0
 11
71.072563
 21
62.628056
 31
0.0
  0
LINE
  5
2A1
330
27C
100
AcDbEntity
  8
0
  6
CONTINUOUS
 62
     7
100
AcDbLine
 10
71.072563
 20
62.628056
 30
0.0
 11
71.058633
 21
62.62743
 31
0.0
  0
LINE
  5
2A2
330
27C
100
AcDbEntity
  8
0
  6
CONTINUOUS
 62
     7
100
AcDbLine
 10
71.058633
 20
62.62743
 30
0.0
 11
71.043964
 21
62.626791
 31
0.0
  0
LINE
  5
2A3
330
27C
100
AcDbEntity
  8
0
  6
CONTINUOUS
 62
     7
100
AcDbLine
 10
71.043964
 20
62.626791
 30
0.0
 11
71.029121
 21
62.626168
 31
0.0
  0
LINE
  5
2A4
330
27C
100
AcDbEntity
  8
0
  6
CONTINUOUS
 62
     7
100
AcDbLine
 10
71.029121
 20
62.626168
 30
0.0
 11
71.014112
 21
62.625559
 31
0.0
  0
LINE
  5
2A5
330
27C
100
AcDbEntity
  8
0
  6
CONTINUOUS
 62
     7
100
AcDbLine
 10
71.014112
 20
62.625559
 30
0.0
 11
70.998942
 21
62.624966
 31
0.0
  0
LINE
  5
2A6
330
27C
100
AcDbEntity
  8
0
  6
CONTINUOUS
 62
     7
100
AcDbLine
 10
70.998942
 20
62.624966
 30
0.0
 11
70.983617
 21
62.62439
 31
0.0
  0
LINE
  5
2A7
330
27C
100
AcDbEntity
  8
0
  6
CONTINUOUS
 62
     7
100
AcDbLine
 10
70.983617
 20
62.62439
 30
0.0
 11
70.968142
 21
62.623832
 31
0.0
  0
LINE
  5
2A8
330
27C
100
AcDbEntity
  8
0
  6
CONTINUOUS
 62
     7
100
AcDbLine
 10
70.968142
 20
62.623832
 30
0.0
 11
70.952525
 21
62.623292
 31
0.0
  0
LINE
  5
2A9
330
27C
100
AcDbEntity
  8
0
  6
CONTINUOUS
 62
     7
100
AcDbLine
 10
70.952525
 20
62.623292
 30
0.0
 11
70.936769
 21
62.622772
 31
0.0
  0
LINE
  5
2AA
330
27C
100
AcDbEntity
  8
0
  6
CONTINUOUS
 62
     7
100
AcDbLine
 10
70.936769
 20
62.622772
 30
0.0
 11
70.920882
 21
62.622271
 31
0.0
  0
LINE
  5
2AB
330
27C
100
AcDbEntity
  8
0
  6
CONTINUOUS
 62
     7
100
AcDbLine
 10
70.920882
 20
62.622271
 30
0.0
 11
70.90487
 21
62.621792
 31
0.0
  0
LINE
  5
2AC
330
27C
100
AcDbEntity
  8
0
  6
CONTINUOUS
 62
     7
100
AcDbLine
 10
70.90487
 20
62.621792
 30
0.0
 11
70.888737
 21
62.621333
 31
0.0
  0
LINE
  5
2AD
330
27C
100
AcDbEntity
  8
0
  6
CONTINUOUS
 62
     7
100
AcDbLine
 10
70.888737
 20
62.621333
 30
0.0
 11
70.87249
 21
62.620898
 31
0.0
  0
LINE
  5
2AE
330
27C
100
AcDbEntity
  8
0
  6
CONTINUOUS
 62
     7
100
AcDbLine
 10
70.87249
 20
62.620898
 30
0.0
 11
70.856135
 21
62.620486
 31
0.0
  0
LINE
  5
2AF
330
27C
100
AcDbEntity
  8
0
  6
CONTINUOUS
 62
     7
100
AcDbLine
 10
70.856135
 20
62.620486
 30
0.0
 11
70.839677
 21
62.620097
 31
0.0
  0
LINE
  5
2B0
330
27C
100
AcDbEntity
  8
0
  6
CONTINUOUS
 62
     7
100
AcDbLine
 10
70.839677
 20
62.620097
 30
0.0
 11
70.831412
 21
62.619912
 31
0.0
  0
LINE
  5
2B1
330
27C
100
AcDbEntity
  8
0
  6
CONTINUOUS
 62
     7
100
AcDbLine
 10
70.831412
 20
62.619912
 30
0.0
 11
70.823123
 21
62.619734
 31
0.0
  0
LINE
  5
2B2
330
27C
100
AcDbEntity
  8
0
  6
CONTINUOUS
 62
     7
100
AcDbLine
 10
70.823123
 20
62.619734
 30
0.0
 11
70.814811
 21
62.619562
 31
0.0
  0
LINE
  5
2B3
330
27C
100
AcDbEntity
  8
0
  6
CONTINUOUS
 62
     7
100
AcDbLine
 10
70.814811
 20
62.619562
 30
0.0
 11
70.806477
 21
62.619396
 31
0.0
  0
LINE
  5
2B4
330
27C
100
AcDbEntity
  8
0
  6
CONTINUOUS
 62
     7
100
AcDbLine
 10
70.806477
 20
62.619396
 30
0.0
 11
70.797847
 21
62.619232
 31
0.0
  0
LINE
  5
2B5
330
27C
100
AcDbEntity
  8
0
  6
CONTINUOUS
 62
     7
100
AcDbLine
 10
70.797847
 20
62.619232
 30
0.0
 11
70.789195
 21
62.619075
 31
0.0
  0
LINE
  5
2B6
330
27C
100
AcDbEntity
  8
0
  6
CONTINUOUS
 62
     7
100
AcDbLine
 10
70.789195
 20
62.619075
 30
0.0
 11
70.780523
 21
62.618925
 31
0.0
  0
LINE
  5
2B7
330
27C
100
AcDbEntity
  8
0
  6
CONTINUOUS
 62
     7
100
AcDbLine
 10
70.780523
 20
62.618925
 30
0.0
 11
70.77183
 21
62.618782
 31
0.0
  0
LINE
  5
2B8
330
27C
100
AcDbEntity
  8
0
  6
CONTINUOUS
 62
     7
100
AcDbLine
 10
70.77183
 20
62.618782
 30
0.0
 11
70.763119
 21
62.618647
 31
0.0
  0
LINE
  5
2B9
330
27C
100
AcDbEntity
  8
0
  6
CONTINUOUS
 62
     7
100
AcDbLine
 10
70.763119
 20
62.618647
 30
0.0
 11
70.754391
 21
62.618518
 31
0.0
  0
LINE
  5
2BA
330
27C
100
AcDbEntity
  8
0
  6
CONTINUOUS
 62
     7
100
AcDbLine
 10
70.754391
 20
62.618518
 30
0.0
 11
70.745646
 21
62.618397
 31
0.0
  0
LINE
  5
2BB
330
27C
100
AcDbEntity
  8
0
  6
CONTINUOUS
 62
     7
100
AcDbLine
 10
70.745646
 20
62.618397
 30
0.0
 11
70.736885
 21
62.618283
 31
0.0
  0
LINE
  5
2BC
330
27C
100
AcDbEntity
  8
0
  6
CONTINUOUS
 62
     7
100
AcDbLine
 10
70.736885
 20
62.618283
 30
0.0
 11
70.72811
 21
62.618176
 31
0.0
  0
LINE
  5
2BD
330
27C
100
AcDbEntity
  8
0
  6
CONTINUOUS
 62
     7
100
AcDbLine
 10
70.72811
 20
62.618176
 30
0.0
 11
70.719321
 21
62.618077
 31
0.0
  0
LINE
  5
2BE
330
27C
100
AcDbEntity
  8
0
  6
CONTINUOUS
 62
     7
100
AcDbLine
 10
70.719321
 20
62.618077
 30
0.0
 11
70.710519
 21
62.617985
 31
0.0
  0
LINE
  5
2BF
330
27C
100
AcDbEntity
  8
0
  6
CONTINUOUS
 62
     7
100
AcDbLine
 10
70.710519
 20
62.617985
 30
0.0
 11
70.701706
 21
62.6179
 31
0.0
  0
LINE
  5
2C0
330
27C
100
AcDbEntity
  8
0
  6
CONTINUOUS
 62
     7
100
AcDbLine
 10
70.701706
 20
62.6179
 30
0.0
 11
70.692883
 21
62.617822
 31
0.0
  0
LINE
  5
2C1
330
27C
100
AcDbEntity
  8
0
  6
CONTINUOUS
 62
     7
100
AcDbLine
 10
70.692883
 20
62.617822
 30
0.0
 11
70.68405
 21
62.617752
 31
0.0
  0
LINE
  5
2C2
330
27C
100
AcDbEntity
  8
0
  6
CONTINUOUS
 62
     7
100
AcDbLine
 10
70.68405
 20
62.617752
 30
0.0
 11
70.675208
 21
62.617689
 31
0.0
  0
LINE
  5
2C3
330
27C
100
AcDbEntity
  8
0
  6
CONTINUOUS
 62
     7
100
AcDbLine
 10
70.675208
 20
62.617689
 30
0.0
 11
70.666359
 21
62.617634
 31
0.0
  0
LINE
  5
2C4
330
27C
100
AcDbEntity
  8
0
  6
CONTINUOUS
 62
     7
100
AcDbLine
 10
70.666359
 20
62.617634
 30
0.0
 11
70.657503
 21
62.617586
 31
0.0
  0
LINE
  5
2C5
330
27C
100
AcDbEntity
  8
0
  6
CONTINUOUS
 62
     7
100
AcDbLine
 10
70.657503
 20
62.617586
 30
0.0
 11
70.648642
 21
62.617546
 31
0.0
  0
LINE
  5
2C6
330
27C
100
AcDbEntity
  8
0
  6
CONTINUOUS
 62
     7
100
AcDbLine
 10
70.648642
 20
62.617546
 30
0.0
 11
70.639776
 21
62.617513
 31
0.0
  0
LINE
  5
2C7
330
27C
100
AcDbEntity
  8
0
  6
CONTINUOUS
 62
     7
100
AcDbLine
 10
70.639776
 20
62.617513
 30
0.0
 11
70.630907
 21
62.617488
 31
0.0
  0
LINE
  5
2C8
330
27C
100
AcDbEntity
  8
0
  6
CONTINUOUS
 62
     7
100
AcDbLine
 10
70.630907
 20
62.617488
 30
0.0
 11
70.622035
 21
62.61747
 31
0.0
  0
LINE
  5
2C9
330
27C
100
AcDbEntity
  8
0
  6
CONTINUOUS
 62
     7
100
AcDbLine
 10
70.622035
 20
62.61747
 30
0.0
 11
70.613162
 21
62.617459
 31
0.0
  0
LINE
  5
2CA
330
27C
100
AcDbEntity
  8
0
  6
CONTINUOUS
 62
     7
100
AcDbLine
 10
70.613162
 20
62.617459
 30
0.0
 11
70.604288
 21
62.617457
 31
0.0
  0
LINE
  5
2CB
330
27C
100
AcDbEntity
  8
0
  6
CONTINUOUS
 62
     7
100
AcDbLine
 10
70.604288
 20
62.617457
 30
0.0
 11
70.595415
 21
62.617462
 31
0.0
  0
LINE
  5
2CC
330
27C
100
AcDbEntity
  8
0
  6
CONTINUOUS
 62
     7
100
AcDbLine
 10
70.595415
 20
62.617462
 30
0.0
 11
70.586543
 21
62.617474
 31
0.0
  0
LINE
  5
2CD
330
27C
100
AcDbEntity
  8
0
  6
CONTINUOUS
 62
     7
100
AcDbLine
 10
70.586543
 20
62.617474
 30
0.0
 11
70.577674
 21
62.617495
 31
0.0
  0
LINE
  5
2CE
330
27C
100
AcDbEntity
  8
0
  6
CONTINUOUS
 62
     7
100
AcDbLine
 10
70.577674
 20
62.617495
 30
0.0
 11
70.568808
 21
62.617523
 31
0.0
  0
LINE
  5
2CF
330
27C
100
AcDbEntity
  8
0
  6
CONTINUOUS
 62
     7
100
AcDbLine
 10
70.568808
 20
62.617523
 30
0.0
 11
70.559947
 21
62.617558
 31
0.0
  0
LINE
  5
2D0
330
27C
100
AcDbEntity
  8
0
  6
CONTINUOUS
 62
     7
100
AcDbLine
 10
70.559947
 20
62.617558
 30
0.0
 11
70.551092
 21
62.617602
 31
0.0
  0
LINE
  5
2D1
330
27C
100
AcDbEntity
  8
0
  6
CONTINUOUS
 62
     7
100
AcDbLine
 10
70.551092
 20
62.617602
 30
0.0
 11
70.542243
 21
62.617653
 31
0.0
  0
LINE
  5
2D2
330
27C
100
AcDbEntity
  8
0
  6
CONTINUOUS
 62
     7
100
AcDbLine
 10
70.542243
 20
62.617653
 30
0.0
 11
70.533401
 21
62.617712
 31
0.0
  0
LINE
  5
2D3
330
27C
100
AcDbEntity
  8
0
  6
CONTINUOUS
 62
     7
100
AcDbLine
 10
70.533401
 20
62.617712
 30
0.0
 11
70.524569
 21
62.617778
 31
0.0
  0
LINE
  5
2D4
330
27C
100
AcDbEntity
  8
0
  6
CONTINUOUS
 62
     7
100
AcDbLine
 10
70.524569
 20
62.617778
 30
0.0
 11
70.515613
 21
62.617854
 31
0.0
  0
LINE
  5
2D5
330
27C
100
AcDbEntity
  8
0
  6
CONTINUOUS
 62
     7
100
AcDbLine
 10
70.515613
 20
62.617854
 30
0.0
 11
70.506668
 21
62.617938
 31
0.0
  0
LINE
  5
2D6
330
27C
100
AcDbEntity
  8
0
  6
CONTINUOUS
 62
     7
100
AcDbLine
 10
70.506668
 20
62.617938
 30
0.0
 11
70.497735
 21
62.61803
 31
0.0
  0
LINE
  5
2D7
330
27C
100
AcDbEntity
  8
0
  6
CONTINUOUS
 62
     7
100
AcDbLine
 10
70.497735
 20
62.61803
 30
0.0
 11
70.488814
 21
62.618129
 31
0.0
  0
LINE
  5
2D8
330
27C
100
AcDbEntity
  8
0
  6
CONTINUOUS
 62
     7
100
AcDbLine
 10
70.488814
 20
62.618129
 30
0.0
 11
70.479907
 21
62.618236
 31
0.0
  0
LINE
  5
2D9
330
27C
100
AcDbEntity
  8
0
  6
CONTINUOUS
 62
     7
100
AcDbLine
 10
70.479907
 20
62.618236
 30
0.0
 11
70.471014
 21
62.618351
 31
0.0
  0
LINE
  5
2DA
330
27C
100
AcDbEntity
  8
0
  6
CONTINUOUS
 62
     7
100
AcDbLine
 10
70.471014
 20
62.618351
 30
0.0
 11
70.462137
 21
62.618473
 31
0.0
  0
LINE
  5
2DB
330
27C
100
AcDbEntity
  8
0
  6
CONTINUOUS
 62
     7
100
AcDbLine
 10
70.462137
 20
62.618473
 30
0.0
 11
70.453276
 21
62.618603
 31
0.0
  0
LINE
  5
2DC
330
27C
100
AcDbEntity
  8
0
  6
CONTINUOUS
 62
     7
100
AcDbLine
 10
70.453276
 20
62.618603
 30
0.0
 11
70.444431
 21
62.618741
 31
0.0
  0
LINE
  5
2DD
330
27C
100
AcDbEntity
  8
0
  6
CONTINUOUS
 62
     7
100
AcDbLine
 10
70.444431
 20
62.618741
 30
0.0
 11
70.435605
 21
62.618885
 31
0.0
  0
LINE
  5
2DE
330
27C
100
AcDbEntity
  8
0
  6
CONTINUOUS
 62
     7
100
AcDbLine
 10
70.435605
 20
62.618885
 30
0.0
 11
70.426798
 21
62.619037
 31
0.0
  0
LINE
  5
2DF
330
27C
100
AcDbEntity
  8
0
  6
CONTINUOUS
 62
     7
100
AcDbLine
 10
70.426798
 20
62.619037
 30
0.0
 11
70.41801
 21
62.619196
 31
0.0
  0
LINE
  5
2E0
330
27C
100
AcDbEntity
  8
0
  6
CONTINUOUS
 62
     7
100
AcDbLine
 10
70.41801
 20
62.619196
 30
0.0
 11
70.409243
 21
62.619363
 31
0.0
  0
LINE
  5
2E1
330
27C
100
AcDbEntity
  8
0
  6
CONTINUOUS
 62
     7
100
AcDbLine
 10
70.409243
 20
62.619363
 30
0.0
 11
70.400498
 21
62.619536
 31
0.0
  0
LINE
  5
2E2
330
27C
100
AcDbEntity
  8
0
  6
CONTINUOUS
 62
     7
100
AcDbLine
 10
70.400498
 20
62.619536
 30
0.0
 11
70.391775
 21
62.619716
 31
0.0
  0
LINE
  5
2E3
330
27C
100
AcDbEntity
  8
0
  6
CONTINUOUS
 62
     7
100
AcDbLine
 10
70.391775
 20
62.619716
 30
0.0
 11
70.383076
 21
62.619903
 31
0.0
  0
LINE
  5
2E4
330
27C
100
AcDbEntity
  8
0
  6
CONTINUOUS
 62
     7
100
AcDbLine
 10
70.383076
 20
62.619903
 30
0.0
 11
70.374401
 21
62.620097
 31
0.0
  0
LINE
  5
2E5
330
27C
100
AcDbEntity
  8
0
  6
CONTINUOUS
 62
     7
100
AcDbLine
 10
70.374401
 20
62.620097
 30
0.0
 11
70.365751
 21
62.620297
 31
0.0
  0
LINE
  5
2E6
330
27C
100
AcDbEntity
  8
0
  6
CONTINUOUS
 62
     7
100
AcDbLine
 10
70.365751
 20
62.620297
 30
0.0
 11
70.357127
 21
62.620504
 31
0.0
  0
LINE
  5
2E7
330
27C
100
AcDbEntity
  8
0
  6
CONTINUOUS
 62
     7
100
AcDbLine
 10
70.357127
 20
62.620504
 30
0.0
 11
70.34853
 21
62.620718
 31
0.0
  0
LINE
  5
2E8
330
27C
100
AcDbEntity
  8
0
  6
CONTINUOUS
 62
     7
100
AcDbLine
 10
70.34853
 20
62.620718
 30
0.0
 11
70.339961
 21
62.620938
 31
0.0
  0
LINE
  5
2E9
330
27C
100
AcDbEntity
  8
0
  6
CONTINUOUS
 62
     7
100
AcDbLine
 10
70.339961
 20
62.620938
 30
0.0
 11
70.33142
 21
62.621164
 31
0.0
  0
LINE
  5
2EA
330
27C
100
AcDbEntity
  8
0
  6
CONTINUOUS
 62
     7
100
AcDbLine
 10
70.33142
 20
62.621164
 30
0.0
 11
70.32291
 21
62.621397
 31
0.0
  0
LINE
  5
2EB
330
27C
100
AcDbEntity
  8
0
  6
CONTINUOUS
 62
     7
100
AcDbLine
 10
70.32291
 20
62.621397
 30
0.0
 11
70.31443
 21
62.621636
 31
0.0
  0
LINE
  5
2EC
330
27C
100
AcDbEntity
  8
0
  6
CONTINUOUS
 62
     7
100
AcDbLine
 10
70.31443
 20
62.621636
 30
0.0
 11
70.305981
 21
62.621881
 31
0.0
  0
LINE
  5
2ED
330
27C
100
AcDbEntity
  8
0
  6
CONTINUOUS
 62
     7
100
AcDbLine
 10
70.305981
 20
62.621881
 30
0.0
 11
70.297565
 21
62.622132
 31
0.0
  0
LINE
  5
2EE
330
27C
100
AcDbEntity
  8
0
  6
CONTINUOUS
 62
     7
100
AcDbLine
 10
70.297565
 20
62.622132
 30
0.0
 11
70.289182
 21
62.622388
 31
0.0
  0
LINE
  5
2EF
330
27C
100
AcDbEntity
  8
0
  6
CONTINUOUS
 62
     7
100
AcDbLine
 10
70.289182
 20
62.622388
 30
0.0
 11
70.280833
 21
62.622651
 31
0.0
  0
LINE
  5
2F0
330
27C
100
AcDbEntity
  8
0
  6
CONTINUOUS
 62
     7
100
AcDbLine
 10
70.280833
 20
62.622651
 30
0.0
 11
70.272519
 21
62.62292
 31
0.0
  0
LINE
  5
2F1
330
27C
100
AcDbEntity
  8
0
  6
CONTINUOUS
 62
     7
100
AcDbLine
 10
70.272519
 20
62.62292
 30
0.0
 11
70.264241
 21
62.623194
 31
0.0
  0
LINE
  5
2F2
330
27C
100
AcDbEntity
  8
0
  6
CONTINUOUS
 62
     7
100
AcDbLine
 10
70.264241
 20
62.623194
 30
0.0
 11
70.256
 21
62.623474
 31
0.0
  0
LINE
  5
2F3
330
27C
100
AcDbEntity
  8
0
  6
CONTINUOUS
 62
     7
100
AcDbLine
 10
70.256
 20
62.623474
 30
0.0
 11
70.247797
 21
62.623759
 31
0.0
  0
LINE
  5
2F4
330
27C
100
AcDbEntity
  8
0
  6
CONTINUOUS
 62
     7
100
AcDbLine
 10
70.247797
 20
62.623759
 30
0.0
 11
70.231598
 21
62.624343
 31
0.0
  0
LINE
  5
2F5
330
27C
100
AcDbEntity
  8
0
  6
CONTINUOUS
 62
     7
100
AcDbLine
 10
70.231598
 20
62.624343
 30
0.0
 11
70.215561
 21
62.624947
 31
0.0
  0
LINE
  5
2F6
330
27C
100
AcDbEntity
  8
0
  6
CONTINUOUS
 62
     7
100
AcDbLine
 10
70.215561
 20
62.624947
 30
0.0
 11
70.199697
 21
62.625569
 31
0.0
  0
LINE
  5
2F7
330
27C
100
AcDbEntity
  8
0
  6
CONTINUOUS
 62
     7
100
AcDbLine
 10
70.199697
 20
62.625569
 30
0.0
 11
70.184016
 21
62.626209
 31
0.0
  0
LINE
  5
2F8
330
27C
100
AcDbEntity
  8
0
  6
CONTINUOUS
 62
     7
100
AcDbLine
 10
70.184016
 20
62.626209
 30
0.0
 11
70.168528
 21
62.626863
 31
0.0
  0
LINE
  5
2F9
330
27C
100
AcDbEntity
  8
0
  6
CONTINUOUS
 62
     7
100
AcDbLine
 10
70.168528
 20
62.626863
 30
0.0
 11
70.153243
 21
62.627532
 31
0.0
  0
LINE
  5
2FA
330
27C
100
AcDbEntity
  8
0
  6
CONTINUOUS
 62
     7
100
AcDbLine
 10
70.153243
 20
62.627532
 30
0.0
 11
70.13817
 21
62.628214
 31
0.0
  0
LINE
  5
2FB
330
27C
100
AcDbEntity
  8
0
  6
CONTINUOUS
 62
     7
100
AcDbLine
 10
70.13817
 20
62.628214
 30
0.0
 11
70.12332
 21
62.628906
 31
0.0
  0
LINE
  5
2FC
330
27C
100
AcDbEntity
  8
0
  6
CONTINUOUS
 62
     7
100
AcDbLine
 10
70.12332
 20
62.628906
 30
0.0
 11
70.108702
 21
62.629607
 31
0.0
  0
LINE
  5
2FD
330
27C
100
AcDbEntity
  8
0
  6
CONTINUOUS
 62
     7
100
AcDbLine
 10
70.108702
 20
62.629607
 30
0.0
 11
70.094326
 21
62.630317
 31
0.0
  0
LINE
  5
2FE
330
27C
100
AcDbEntity
  8
0
  6
CONTINUOUS
 62
     7
100
AcDbLine
 10
70.094326
 20
62.630317
 30
0.0
 11
70.080204
 21
62.631032
 31
0.0
  0
LINE
  5
2FF
330
27C
100
AcDbEntity
  8
0
  6
CONTINUOUS
 62
     7
100
AcDbLine
 10
70.080204
 20
62.631032
 30
0.0
 11
70.066343
 21
62.631753
 31
0.0
  0
LINE
  5
300
330
27C
100
AcDbEntity
  8
0
  6
CONTINUOUS
 62
     7
100
AcDbLine
 10
70.066343
 20
62.631753
 30
0.0
 11
70.052755
 21
62.632477
 31
0.0
  0
LINE
  5
301
330
27C
100
AcDbEntity
  8
0
  6
CONTINUOUS
 62
     7
100
AcDbLine
 10
70.052755
 20
62.632477
 30
0.0
 11
70.039449
 21
62.633202
 31
0.0
  0
LINE
  5
302
330
27C
100
AcDbEntity
  8
0
  6
CONTINUOUS
 62
     7
100
AcDbLine
 10
70.039449
 20
62.633202
 30
0.0
 11
70.026436
 21
62.633928
 31
0.0
  0
LINE
  5
303
330
27C
100
AcDbEntity
  8
0
  6
CONTINUOUS
 62
     7
100
AcDbLine
 10
70.026436
 20
62.633928
 30
0.0
 11
70.013724
 21
62.634652
 31
0.0
  0
LINE
  5
304
330
27C
100
AcDbEntity
  8
0
  6
CONTINUOUS
 62
     7
100
AcDbLine
 10
70.013724
 20
62.634652
 30
0.0
 11
70.001646
 21
62.635355
 31
0.0
  0
LINE
  5
305
330
27C
100
AcDbEntity
  8
0
  6
CONTINUOUS
 62
     7
100
AcDbLine
 10
70.001646
 20
62.635355
 30
0.0
 11
69.98986
 21
62.636054
 31
0.0
  0
LINE
  5
306
330
27C
100
AcDbEntity
  8
0
  6
CONTINUOUS
 62
     7
100
AcDbLine
 10
69.98986
 20
62.636054
 30
0.0
 11
69.978364
 21
62.63675
 31
0.0
  0
LINE
  5
307
330
27C
100
AcDbEntity
  8
0
  6
CONTINUOUS
 62
     7
100
AcDbLine
 10
69.978364
 20
62.63675
 30
0.0
 11
69.967155
 21
62.637441
 31
0.0
  0
LINE
  5
308
330
27C
100
AcDbEntity
  8
0
  6
CONTINUOUS
 62
     7
100
AcDbLine
 10
69.967155
 20
62.637441
 30
0.0
 11
69.956229
 21
62.638126
 31
0.0
  0
LINE
  5
309
330
27C
100
AcDbEntity
  8
0
  6
CONTINUOUS
 62
     7
100
AcDbLine
 10
69.956229
 20
62.638126
 30
0.0
 11
69.945584
 21
62.638806
 31
0.0
  0
LINE
  5
30A
330
27C
100
AcDbEntity
  8
0
  6
CONTINUOUS
 62
     7
100
AcDbLine
 10
69.945584
 20
62.638806
 30
0.0
 11
69.935216
 21
62.639479
 31
0.0
  0
LINE
  5
30B
330
27C
100
AcDbEntity
  8
0
  6
CONTINUOUS
 62
     7
100
AcDbLine
 10
69.935216
 20
62.639479
 30
0.0
 11
69.925122
 21
62.640146
 31
0.0
  0
LINE
  5
30C
330
27C
100
AcDbEntity
  8
0
  6
CONTINUOUS
 62
     7
100
AcDbLine
 10
69.925122
 20
62.640146
 30
0.0
 11
69.9153
 21
62.640804
 31
0.0
  0
LINE
  5
30D
330
27C
100
AcDbEntity
  8
0
  6
CONTINUOUS
 62
     7
100
AcDbLine
 10
69.9153
 20
62.640804
 30
0.0
 11
69.905745
 21
62.641455
 31
0.0
  0
LINE
  5
30E
330
27C
100
AcDbEntity
  8
0
  6
CONTINUOUS
 62
     7
100
AcDbLine
 10
69.905745
 20
62.641455
 30
0.0
 11
69.896456
 21
62.642096
 31
0.0
  0
LINE
  5
30F
330
27C
100
AcDbEntity
  8
0
  6
CONTINUOUS
 62
     7
100
AcDbLine
 10
69.896456
 20
62.642096
 30
0.0
 11
69.887428
 21
62.642728
 31
0.0
  0
LINE
  5
310
330
27C
100
AcDbEntity
  8
0
  6
CONTINUOUS
 62
     7
100
AcDbLine
 10
69.887428
 20
62.642728
 30
0.0
 11
69.878659
 21
62.643349
 31
0.0
  0
LINE
  5
311
330
27C
100
AcDbEntity
  8
0
  6
CONTINUOUS
 62
     7
100
AcDbLine
 10
69.878659
 20
62.643349
 30
0.0
 11
69.870146
 21
62.64396
 31
0.0
  0
LINE
  5
312
330
27C
100
AcDbEntity
  8
0
  6
CONTINUOUS
 62
     7
100
AcDbLine
 10
69.870146
 20
62.64396
 30
0.0
 11
69.853874
 21
62.645146
 31
0.0
  0
LINE
  5
313
330
27C
100
AcDbEntity
  8
0
  6
CONTINUOUS
 62
     7
100
AcDbLine
 10
69.853874
 20
62.645146
 30
0.0
 11
69.839241
 21
62.646233
 31
0.0
  0
LINE
  5
314
330
27C
100
AcDbEntity
  8
0
  6
CONTINUOUS
 62
     7
100
AcDbLine
 10
69.839241
 20
62.646233
 30
0.0
 11
69.825784
 21
62.647248
 31
0.0
  0
LINE
  5
315
330
27C
100
AcDbEntity
  8
0
  6
CONTINUOUS
 62
     7
100
AcDbLine
 10
69.825784
 20
62.647248
 30
0.0
 11
69.813771
 21
62.648167
 31
0.0
  0
LINE
  5
316
330
27C
100
AcDbEntity
  8
0
  6
CONTINUOUS
 62
     7
100
AcDbLine
 10
69.813771
 20
62.648167
 30
0.0
 11
69.803473
 21
62.648965
 31
0.0
  0
LINE
  5
317
330
27C
100
AcDbEntity
  8
0
  6
CONTINUOUS
 62
     7
100
AcDbLine
 10
69.803473
 20
62.648965
 30
0.0
 11
69.789095
 21
62.650096
 31
0.0
  0
LINE
  5
318
330
27C
100
AcDbEntity
  8
0
  6
CONTINUOUS
 62
     7
100
AcDbLine
 10
69.789095
 20
62.650096
 30
0.0
 11
69.784801
 21
62.650444
 31
0.0
  0
LINE
  5
319
330
27C
100
AcDbEntity
  8
0
  6
CONTINUOUS
 62
     7
100
AcDbLine
 10
69.784801
 20
62.650444
 30
0.0
 11
69.790283
 21
62.650011
 31
0.0
  0
ENDBLK
  5
27E
330
27C
100
AcDbEntity
  8
0
100
AcDbBlockEnd
  0
BLOCK
  5
31B
330
31A
100
AcDbEntity
  8
0
100
AcDbBlockBegin
  2
BLKF016
 70
     0
 71
     0
 10
0.0
 20
0.0
 30
0.0
  3
BLKF016
  1

  0
LINE
  5
31E
330
31A
100
AcDbEntity
  8
0
  6
CONTINUOUS
 62
     7
100
AcDbLine
 10
70.033322
 20
43.767811
 30
0.0
 11
70.010768
 21
43.766441
 31
0.0
  0
LINE
  5
31F
330
31A
100
AcDbEntity
  8
0
  6
CONTINUOUS
 62
     7
100
AcDbLine
 10
70.010768
 20
43.766441
 30
0.0
 11
69.988589
 21
43.765088
 31
0.0
  0
LINE
  5
320
330
31A
100
AcDbEntity
  8
0
  6
CONTINUOUS
 62
     7
100
AcDbLine
 10
69.988589
 20
43.765088
 30
0.0
 11
69.967158
 21
43.763773
 31
0.0
  0
LINE
  5
321
330
31A
100
AcDbEntity
  8
0
  6
CONTINUOUS
 62
     7
100
AcDbLine
 10
69.967158
 20
43.763773
 30
0.0
 11
69.946851
 21
43.762513
 31
0.0
  0
LINE
  5
322
330
31A
100
AcDbEntity
  8
0
  6
CONTINUOUS
 62
     7
100
AcDbLine
 10
69.946851
 20
43.762513
 30
0.0
 11
69.928041
 21
43.761326
 31
0.0
  0
LINE
  5
323
330
31A
100
AcDbEntity
  8
0
  6
CONTINUOUS
 62
     7
100
AcDbLine
 10
69.928041
 20
43.761326
 30
0.0
 11
69.911104
 21
43.760231
 31
0.0
  0
LINE
  5
324
330
31A
100
AcDbEntity
  8
0
  6
CONTINUOUS
 62
     7
100
AcDbLine
 10
69.911104
 20
43.760231
 30
0.0
 11
69.896412
 21
43.759247
 31
0.0
  0
LINE
  5
325
330
31A
100
AcDbEntity
  8
0
  6
CONTINUOUS
 62
     7
100
AcDbLine
 10
69.896412
 20
43.759247
 30
0.0
 11
69.890026
 21
43.758802
 31
0.0
  0
LINE
  5
326
330
31A
100
AcDbEntity
  8
0
  6
CONTINUOUS
 62
     7
100
AcDbLine
 10
69.890026
 20
43.758802
 30
0.0
 11
69.884342
 21
43.758392
 31
0.0
  0
LINE
  5
327
330
31A
100
AcDbEntity
  8
0
  6
CONTINUOUS
 62
     7
100
AcDbLine
 10
69.884342
 20
43.758392
 30
0.0
 11
69.879642
 21
43.75804
 31
0.0
  0
ENDBLK
  5
31C
330
31A
100
AcDbEntity
  8
0
100
AcDbBlockEnd
  0
BLOCK
  5
329
330
328
100
AcDbEntity
  8
0
100
AcDbBlockBegin
  2
BLKF017
 70
     0
 71
     0
 10
0.0
 20
0.0
 30
0.0
  3
BLKF017
  1

  0
LINE
  5
32C
330
328
100
AcDbEntity
  8
0
  6
CONTINUOUS
 62
     7
100
AcDbLine
 10
69.793029
 20
43.751559
 30
0.0
 11
69.792976
 21
43.751555
 31
0.0
  0
LINE
  5
32D
330
328
100
AcDbEntity
  8
0
  6
CONTINUOUS
 62
     7
100
AcDbLine
 10
69.792976
 20
43.751555
 30
0.0
 11
69.803647
 21
43.752394
 31
0.0
  0
LINE
  5
32E
330
328
100
AcDbEntity
  8
0
  6
CONTINUOUS
 62
     7
100
AcDbLine
 10
69.803647
 20
43.752394
 30
0.0
 11
69.822175
 21
43.753824
 31
0.0
  0
LINE
  5
32F
330
328
100
AcDbEntity
  8
0
  6
CONTINUOUS
 62
     7
100
AcDbLine
 10
69.822175
 20
43.753824
 30
0.0
 11
69.833937
 21
43.754715
 31
0.0
  0
LINE
  5
330
330
328
100
AcDbEntity
  8
0
  6
CONTINUOUS
 62
     7
100
AcDbLine
 10
69.833937
 20
43.754715
 30
0.0
 11
69.847123
 21
43.755699
 31
0.0
  0
LINE
  5
331
330
328
100
AcDbEntity
  8
0
  6
CONTINUOUS
 62
     7
100
AcDbLine
 10
69.847123
 20
43.755699
 30
0.0
 11
69.861555
 21
43.756759
 31
0.0
  0
LINE
  5
332
330
328
100
AcDbEntity
  8
0
  6
CONTINUOUS
 62
     7
100
AcDbLine
 10
69.861555
 20
43.756759
 30
0.0
 11
69.877053
 21
43.757876
 31
0.0
  0
LINE
  5
333
330
328
100
AcDbEntity
  8
0
  6
CONTINUOUS
 62
     7
100
AcDbLine
 10
69.877053
 20
43.757876
 30
0.0
 11
69.893717
 21
43.759052
 31
0.0
  0
LINE
  5
334
330
328
100
AcDbEntity
  8
0
  6
CONTINUOUS
 62
     7
100
AcDbLine
 10
69.893717
 20
43.759052
 30
0.0
 11
69.911298
 21
43.760263
 31
0.0
  0
LINE
  5
335
330
328
100
AcDbEntity
  8
0
  6
CONTINUOUS
 62
     7
100
AcDbLine
 10
69.911298
 20
43.760263
 30
0.0
 11
69.9298
 21
43.761505
 31
0.0
  0
LINE
  5
336
330
328
100
AcDbEntity
  8
0
  6
CONTINUOUS
 62
     7
100
AcDbLine
 10
69.9298
 20
43.761505
 30
0.0
 11
69.949228
 21
43.762771
 31
0.0
  0
LINE
  5
337
330
328
100
AcDbEntity
  8
0
  6
CONTINUOUS
 62
     7
100
AcDbLine
 10
69.949228
 20
43.762771
 30
0.0
 11
69.969587
 21
43.764056
 31
0.0
  0
LINE
  5
338
330
328
100
AcDbEntity
  8
0
  6
CONTINUOUS
 62
     7
100
AcDbLine
 10
69.969587
 20
43.764056
 30
0.0
 11
69.99088
 21
43.765356
 31
0.0
  0
LINE
  5
339
330
328
100
AcDbEntity
  8
0
  6
CONTINUOUS
 62
     7
100
AcDbLine
 10
69.99088
 20
43.765356
 30
0.0
 11
70.001878
 21
43.766009
 31
0.0
  0
LINE
  5
33A
330
328
100
AcDbEntity
  8
0
  6
CONTINUOUS
 62
     7
100
AcDbLine
 10
70.001878
 20
43.766009
 30
0.0
 11
70.013111
 21
43.766665
 31
0.0
  0
LINE
  5
33B
330
328
100
AcDbEntity
  8
0
  6
CONTINUOUS
 62
     7
100
AcDbLine
 10
70.013111
 20
43.766665
 30
0.0
 11
70.02458
 21
43.767321
 31
0.0
  0
LINE
  5
33C
330
328
100
AcDbEntity
  8
0
  6
CONTINUOUS
 62
     7
100
AcDbLine
 10
70.02458
 20
43.767321
 30
0.0
 11
70.036286
 21
43.767977
 31
0.0
  0
LINE
  5
33D
330
328
100
AcDbEntity
  8
0
  6
CONTINUOUS
 62
     7
100
AcDbLine
 10
70.036286
 20
43.767977
 30
0.0
 11
70.048671
 21
43.768657
 31
0.0
  0
LINE
  5
33E
330
328
100
AcDbEntity
  8
0
  6
CONTINUOUS
 62
     7
100
AcDbLine
 10
70.048671
 20
43.768657
 30
0.0
 11
70.061303
 21
43.769336
 31
0.0
  0
LINE
  5
33F
330
328
100
AcDbEntity
  8
0
  6
CONTINUOUS
 62
     7
100
AcDbLine
 10
70.061303
 20
43.769336
 30
0.0
 11
70.074175
 21
43.770012
 31
0.0
  0
LINE
  5
340
330
328
100
AcDbEntity
  8
0
  6
CONTINUOUS
 62
     7
100
AcDbLine
 10
70.074175
 20
43.770012
 30
0.0
 11
70.087278
 21
43.770684
 31
0.0
  0
LINE
  5
341
330
328
100
AcDbEntity
  8
0
  6
CONTINUOUS
 62
     7
100
AcDbLine
 10
70.087278
 20
43.770684
 30
0.0
 11
70.100606
 21
43.77135
 31
0.0
  0
LINE
  5
342
330
328
100
AcDbEntity
  8
0
  6
CONTINUOUS
 62
     7
100
AcDbLine
 10
70.100606
 20
43.77135
 30
0.0
 11
70.114149
 21
43.772011
 31
0.0
  0
LINE
  5
343
330
328
100
AcDbEntity
  8
0
  6
CONTINUOUS
 62
     7
100
AcDbLine
 10
70.114149
 20
43.772011
 30
0.0
 11
70.127902
 21
43.772663
 31
0.0
  0
LINE
  5
344
330
328
100
AcDbEntity
  8
0
  6
CONTINUOUS
 62
     7
100
AcDbLine
 10
70.127902
 20
43.772663
 30
0.0
 11
70.141856
 21
43.773308
 31
0.0
  0
LINE
  5
345
330
328
100
AcDbEntity
  8
0
  6
CONTINUOUS
 62
     7
100
AcDbLine
 10
70.141856
 20
43.773308
 30
0.0
 11
70.156003
 21
43.773942
 31
0.0
  0
LINE
  5
346
330
328
100
AcDbEntity
  8
0
  6
CONTINUOUS
 62
     7
100
AcDbLine
 10
70.156003
 20
43.773942
 30
0.0
 11
70.170336
 21
43.774565
 31
0.0
  0
LINE
  5
347
330
328
100
AcDbEntity
  8
0
  6
CONTINUOUS
 62
     7
100
AcDbLine
 10
70.170336
 20
43.774565
 30
0.0
 11
70.184848
 21
43.775176
 31
0.0
  0
LINE
  5
348
330
328
100
AcDbEntity
  8
0
  6
CONTINUOUS
 62
     7
100
AcDbLine
 10
70.184848
 20
43.775176
 30
0.0
 11
70.19953
 21
43.775773
 31
0.0
  0
LINE
  5
349
330
328
100
AcDbEntity
  8
0
  6
CONTINUOUS
 62
     7
100
AcDbLine
 10
70.19953
 20
43.775773
 30
0.0
 11
70.214374
 21
43.776356
 31
0.0
  0
LINE
  5
34A
330
328
100
AcDbEntity
  8
0
  6
CONTINUOUS
 62
     7
100
AcDbLine
 10
70.214374
 20
43.776356
 30
0.0
 11
70.229375
 21
43.776923
 31
0.0
  0
LINE
  5
34B
330
328
100
AcDbEntity
  8
0
  6
CONTINUOUS
 62
     7
100
AcDbLine
 10
70.229375
 20
43.776923
 30
0.0
 11
70.244523
 21
43.777472
 31
0.0
  0
LINE
  5
34C
330
328
100
AcDbEntity
  8
0
  6
CONTINUOUS
 62
     7
100
AcDbLine
 10
70.244523
 20
43.777472
 30
0.0
 11
70.259811
 21
43.778004
 31
0.0
  0
LINE
  5
34D
330
328
100
AcDbEntity
  8
0
  6
CONTINUOUS
 62
     7
100
AcDbLine
 10
70.259811
 20
43.778004
 30
0.0
 11
70.275838
 21
43.778536
 31
0.0
  0
LINE
  5
34E
330
328
100
AcDbEntity
  8
0
  6
CONTINUOUS
 62
     7
100
AcDbLine
 10
70.275838
 20
43.778536
 30
0.0
 11
70.292001
 21
43.779046
 31
0.0
  0
LINE
  5
34F
330
328
100
AcDbEntity
  8
0
  6
CONTINUOUS
 62
     7
100
AcDbLine
 10
70.292001
 20
43.779046
 30
0.0
 11
70.308294
 21
43.779534
 31
0.0
  0
LINE
  5
350
330
328
100
AcDbEntity
  8
0
  6
CONTINUOUS
 62
     7
100
AcDbLine
 10
70.308294
 20
43.779534
 30
0.0
 11
70.324709
 21
43.78
 31
0.0
  0
LINE
  5
351
330
328
100
AcDbEntity
  8
0
  6
CONTINUOUS
 62
     7
100
AcDbLine
 10
70.324709
 20
43.78
 30
0.0
 11
70.341239
 21
43.780442
 31
0.0
  0
LINE
  5
352
330
328
100
AcDbEntity
  8
0
  6
CONTINUOUS
 62
     7
100
AcDbLine
 10
70.341239
 20
43.780442
 30
0.0
 11
70.357879
 21
43.78086
 31
0.0
  0
LINE
  5
353
330
328
100
AcDbEntity
  8
0
  6
CONTINUOUS
 62
     7
100
AcDbLine
 10
70.357879
 20
43.78086
 30
0.0
 11
70.37462
 21
43.781254
 31
0.0
  0
LINE
  5
354
330
328
100
AcDbEntity
  8
0
  6
CONTINUOUS
 62
     7
100
AcDbLine
 10
70.37462
 20
43.781254
 30
0.0
 11
70.391457
 21
43.781623
 31
0.0
  0
LINE
  5
355
330
328
100
AcDbEntity
  8
0
  6
CONTINUOUS
 62
     7
100
AcDbLine
 10
70.391457
 20
43.781623
 30
0.0
 11
70.408381
 21
43.781966
 31
0.0
  0
LINE
  5
356
330
328
100
AcDbEntity
  8
0
  6
CONTINUOUS
 62
     7
100
AcDbLine
 10
70.408381
 20
43.781966
 30
0.0
 11
70.425387
 21
43.782283
 31
0.0
  0
LINE
  5
357
330
328
100
AcDbEntity
  8
0
  6
CONTINUOUS
 62
     7
100
AcDbLine
 10
70.425387
 20
43.782283
 30
0.0
 11
70.442468
 21
43.782573
 31
0.0
  0
LINE
  5
358
330
328
100
AcDbEntity
  8
0
  6
CONTINUOUS
 62
     7
100
AcDbLine
 10
70.442468
 20
43.782573
 30
0.0
 11
70.459616
 21
43.782836
 31
0.0
  0
LINE
  5
359
330
328
100
AcDbEntity
  8
0
  6
CONTINUOUS
 62
     7
100
AcDbLine
 10
70.459616
 20
43.782836
 30
0.0
 11
70.476825
 21
43.783071
 31
0.0
  0
LINE
  5
35A
330
328
100
AcDbEntity
  8
0
  6
CONTINUOUS
 62
     7
100
AcDbLine
 10
70.476825
 20
43.783071
 30
0.0
 11
70.494088
 21
43.783277
 31
0.0
  0
LINE
  5
35B
330
328
100
AcDbEntity
  8
0
  6
CONTINUOUS
 62
     7
100
AcDbLine
 10
70.494088
 20
43.783277
 30
0.0
 11
70.511398
 21
43.783454
 31
0.0
  0
LINE
  5
35C
330
328
100
AcDbEntity
  8
0
  6
CONTINUOUS
 62
     7
100
AcDbLine
 10
70.511398
 20
43.783454
 30
0.0
 11
70.528749
 21
43.783602
 31
0.0
  0
LINE
  5
35D
330
328
100
AcDbEntity
  8
0
  6
CONTINUOUS
 62
     7
100
AcDbLine
 10
70.528749
 20
43.783602
 30
0.0
 11
70.546582
 21
43.783722
 31
0.0
  0
LINE
  5
35E
330
328
100
AcDbEntity
  8
0
  6
CONTINUOUS
 62
     7
100
AcDbLine
 10
70.546582
 20
43.783722
 30
0.0
 11
70.564442
 21
43.783811
 31
0.0
  0
LINE
  5
35F
330
328
100
AcDbEntity
  8
0
  6
CONTINUOUS
 62
     7
100
AcDbLine
 10
70.564442
 20
43.783811
 30
0.0
 11
70.582322
 21
43.783868
 31
0.0
  0
LINE
  5
360
330
328
100
AcDbEntity
  8
0
  6
CONTINUOUS
 62
     7
100
AcDbLine
 10
70.582322
 20
43.783868
 30
0.0
 11
70.600214
 21
43.783893
 31
0.0
  0
LINE
  5
361
330
328
100
AcDbEntity
  8
0
  6
CONTINUOUS
 62
     7
100
AcDbLine
 10
70.600214
 20
43.783893
 30
0.0
 11
70.618111
 21
43.783888
 31
0.0
  0
LINE
  5
362
330
328
100
AcDbEntity
  8
0
  6
CONTINUOUS
 62
     7
100
AcDbLine
 10
70.618111
 20
43.783888
 30
0.0
 11
70.636004
 21
43.783852
 31
0.0
  0
LINE
  5
363
330
328
100
AcDbEntity
  8
0
  6
CONTINUOUS
 62
     7
100
AcDbLine
 10
70.636004
 20
43.783852
 30
0.0
 11
70.653886
 21
43.783784
 31
0.0
  0
LINE
  5
364
330
328
100
AcDbEntity
  8
0
  6
CONTINUOUS
 62
     7
100
AcDbLine
 10
70.653886
 20
43.783784
 30
0.0
 11
70.67175
 21
43.783687
 31
0.0
  0
LINE
  5
365
330
328
100
AcDbEntity
  8
0
  6
CONTINUOUS
 62
     7
100
AcDbLine
 10
70.67175
 20
43.783687
 30
0.0
 11
70.689587
 21
43.783558
 31
0.0
  0
LINE
  5
366
330
328
100
AcDbEntity
  8
0
  6
CONTINUOUS
 62
     7
100
AcDbLine
 10
70.689587
 20
43.783558
 30
0.0
 11
70.707389
 21
43.7834
 31
0.0
  0
LINE
  5
367
330
328
100
AcDbEntity
  8
0
  6
CONTINUOUS
 62
     7
100
AcDbLine
 10
70.707389
 20
43.7834
 30
0.0
 11
70.72515
 21
43.783211
 31
0.0
  0
LINE
  5
368
330
328
100
AcDbEntity
  8
0
  6
CONTINUOUS
 62
     7
100
AcDbLine
 10
70.72515
 20
43.783211
 30
0.0
 11
70.742861
 21
43.782992
 31
0.0
  0
LINE
  5
369
330
328
100
AcDbEntity
  8
0
  6
CONTINUOUS
 62
     7
100
AcDbLine
 10
70.742861
 20
43.782992
 30
0.0
 11
70.760515
 21
43.782744
 31
0.0
  0
LINE
  5
36A
330
328
100
AcDbEntity
  8
0
  6
CONTINUOUS
 62
     7
100
AcDbLine
 10
70.760515
 20
43.782744
 30
0.0
 11
70.778104
 21
43.782466
 31
0.0
  0
LINE
  5
36B
330
328
100
AcDbEntity
  8
0
  6
CONTINUOUS
 62
     7
100
AcDbLine
 10
70.778104
 20
43.782466
 30
0.0
 11
70.79562
 21
43.782158
 31
0.0
  0
LINE
  5
36C
330
328
100
AcDbEntity
  8
0
  6
CONTINUOUS
 62
     7
100
AcDbLine
 10
70.79562
 20
43.782158
 30
0.0
 11
70.813055
 21
43.781821
 31
0.0
  0
LINE
  5
36D
330
328
100
AcDbEntity
  8
0
  6
CONTINUOUS
 62
     7
100
AcDbLine
 10
70.813055
 20
43.781821
 30
0.0
 11
70.830509
 21
43.781453
 31
0.0
  0
LINE
  5
36E
330
328
100
AcDbEntity
  8
0
  6
CONTINUOUS
 62
     7
100
AcDbLine
 10
70.830509
 20
43.781453
 30
0.0
 11
70.847865
 21
43.781057
 31
0.0
  0
LINE
  5
36F
330
328
100
AcDbEntity
  8
0
  6
CONTINUOUS
 62
     7
100
AcDbLine
 10
70.847865
 20
43.781057
 30
0.0
 11
70.865114
 21
43.780633
 31
0.0
  0
LINE
  5
370
330
328
100
AcDbEntity
  8
0
  6
CONTINUOUS
 62
     7
100
AcDbLine
 10
70.865114
 20
43.780633
 30
0.0
 11
70.882247
 21
43.780183
 31
0.0
  0
LINE
  5
371
330
328
100
AcDbEntity
  8
0
  6
CONTINUOUS
 62
     7
100
AcDbLine
 10
70.882247
 20
43.780183
 30
0.0
 11
70.899256
 21
43.779708
 31
0.0
  0
LINE
  5
372
330
328
100
AcDbEntity
  8
0
  6
CONTINUOUS
 62
     7
100
AcDbLine
 10
70.899256
 20
43.779708
 30
0.0
 11
70.916133
 21
43.77921
 31
0.0
  0
LINE
  5
373
330
328
100
AcDbEntity
  8
0
  6
CONTINUOUS
 62
     7
100
AcDbLine
 10
70.916133
 20
43.77921
 30
0.0
 11
70.932867
 21
43.778688
 31
0.0
  0
LINE
  5
374
330
328
100
AcDbEntity
  8
0
  6
CONTINUOUS
 62
     7
100
AcDbLine
 10
70.932867
 20
43.778688
 30
0.0
 11
70.949451
 21
43.778145
 31
0.0
  0
LINE
  5
375
330
328
100
AcDbEntity
  8
0
  6
CONTINUOUS
 62
     7
100
AcDbLine
 10
70.949451
 20
43.778145
 30
0.0
 11
70.965875
 21
43.777581
 31
0.0
  0
LINE
  5
376
330
328
100
AcDbEntity
  8
0
  6
CONTINUOUS
 62
     7
100
AcDbLine
 10
70.965875
 20
43.777581
 30
0.0
 11
70.982132
 21
43.776998
 31
0.0
  0
LINE
  5
377
330
328
100
AcDbEntity
  8
0
  6
CONTINUOUS
 62
     7
100
AcDbLine
 10
70.982132
 20
43.776998
 30
0.0
 11
70.998212
 21
43.776396
 31
0.0
  0
LINE
  5
378
330
328
100
AcDbEntity
  8
0
  6
CONTINUOUS
 62
     7
100
AcDbLine
 10
70.998212
 20
43.776396
 30
0.0
 11
71.014106
 21
43.775777
 31
0.0
  0
LINE
  5
379
330
328
100
AcDbEntity
  8
0
  6
CONTINUOUS
 62
     7
100
AcDbLine
 10
71.014106
 20
43.775777
 30
0.0
 11
71.029806
 21
43.775143
 31
0.0
  0
LINE
  5
37A
330
328
100
AcDbEntity
  8
0
  6
CONTINUOUS
 62
     7
100
AcDbLine
 10
71.029806
 20
43.775143
 30
0.0
 11
71.045303
 21
43.774493
 31
0.0
  0
LINE
  5
37B
330
328
100
AcDbEntity
  8
0
  6
CONTINUOUS
 62
     7
100
AcDbLine
 10
71.045303
 20
43.774493
 30
0.0
 11
71.060589
 21
43.773829
 31
0.0
  0
LINE
  5
37C
330
328
100
AcDbEntity
  8
0
  6
CONTINUOUS
 62
     7
100
AcDbLine
 10
71.060589
 20
43.773829
 30
0.0
 11
71.075653
 21
43.773153
 31
0.0
  0
LINE
  5
37D
330
328
100
AcDbEntity
  8
0
  6
CONTINUOUS
 62
     7
100
AcDbLine
 10
71.075653
 20
43.773153
 30
0.0
 11
71.090273
 21
43.772475
 31
0.0
  0
LINE
  5
37E
330
328
100
AcDbEntity
  8
0
  6
CONTINUOUS
 62
     7
100
AcDbLine
 10
71.090273
 20
43.772475
 30
0.0
 11
71.104666
 21
43.771787
 31
0.0
  0
LINE
  5
37F
330
328
100
AcDbEntity
  8
0
  6
CONTINUOUS
 62
     7
100
AcDbLine
 10
71.104666
 20
43.771787
 30
0.0
 11
71.11883
 21
43.77109
 31
0.0
  0
LINE
  5
380
330
328
100
AcDbEntity
  8
0
  6
CONTINUOUS
 62
     7
100
AcDbLine
 10
71.11883
 20
43.77109
 30
0.0
 11
71.132761
 21
43.770385
 31
0.0
  0
LINE
  5
381
330
328
100
AcDbEntity
  8
0
  6
CONTINUOUS
 62
     7
100
AcDbLine
 10
71.132761
 20
43.770385
 30
0.0
 11
71.146455
 21
43.769673
 31
0.0
  0
LINE
  5
382
330
328
100
AcDbEntity
  8
0
  6
CONTINUOUS
 62
     7
100
AcDbLine
 10
71.146455
 20
43.769673
 30
0.0
 11
71.159909
 21
43.768956
 31
0.0
  0
LINE
  5
383
330
328
100
AcDbEntity
  8
0
  6
CONTINUOUS
 62
     7
100
AcDbLine
 10
71.159909
 20
43.768956
 30
0.0
 11
71.17312
 21
43.768234
 31
0.0
  0
LINE
  5
384
330
328
100
AcDbEntity
  8
0
  6
CONTINUOUS
 62
     7
100
AcDbLine
 10
71.17312
 20
43.768234
 30
0.0
 11
71.186085
 21
43.767509
 31
0.0
  0
LINE
  5
385
330
328
100
AcDbEntity
  8
0
  6
CONTINUOUS
 62
     7
100
AcDbLine
 10
71.186085
 20
43.767509
 30
0.0
 11
71.198798
 21
43.766782
 31
0.0
  0
LINE
  5
386
330
328
100
AcDbEntity
  8
0
  6
CONTINUOUS
 62
     7
100
AcDbLine
 10
71.198798
 20
43.766782
 30
0.0
 11
71.211258
 21
43.766054
 31
0.0
  0
LINE
  5
387
330
328
100
AcDbEntity
  8
0
  6
CONTINUOUS
 62
     7
100
AcDbLine
 10
71.211258
 20
43.766054
 30
0.0
 11
71.22346
 21
43.765326
 31
0.0
  0
LINE
  5
388
330
328
100
AcDbEntity
  8
0
  6
CONTINUOUS
 62
     7
100
AcDbLine
 10
71.22346
 20
43.765326
 30
0.0
 11
71.235402
 21
43.7646
 31
0.0
  0
LINE
  5
389
330
328
100
AcDbEntity
  8
0
  6
CONTINUOUS
 62
     7
100
AcDbLine
 10
71.235402
 20
43.7646
 30
0.0
 11
71.247079
 21
43.763876
 31
0.0
  0
LINE
  5
38A
330
328
100
AcDbEntity
  8
0
  6
CONTINUOUS
 62
     7
100
AcDbLine
 10
71.247079
 20
43.763876
 30
0.0
 11
71.258488
 21
43.763155
 31
0.0
  0
LINE
  5
38B
330
328
100
AcDbEntity
  8
0
  6
CONTINUOUS
 62
     7
100
AcDbLine
 10
71.258488
 20
43.763155
 30
0.0
 11
71.269626
 21
43.76244
 31
0.0
  0
LINE
  5
38C
330
328
100
AcDbEntity
  8
0
  6
CONTINUOUS
 62
     7
100
AcDbLine
 10
71.269626
 20
43.76244
 30
0.0
 11
71.280489
 21
43.76173
 31
0.0
  0
LINE
  5
38D
330
328
100
AcDbEntity
  8
0
  6
CONTINUOUS
 62
     7
100
AcDbLine
 10
71.280489
 20
43.76173
 30
0.0
 11
71.300662
 21
43.760381
 31
0.0
  0
LINE
  5
38E
330
328
100
AcDbEntity
  8
0
  6
CONTINUOUS
 62
     7
100
AcDbLine
 10
71.300662
 20
43.760381
 30
0.0
 11
71.319664
 21
43.759075
 31
0.0
  0
LINE
  5
38F
330
328
100
AcDbEntity
  8
0
  6
CONTINUOUS
 62
     7
100
AcDbLine
 10
71.319664
 20
43.759075
 30
0.0
 11
71.337361
 21
43.757829
 31
0.0
  0
LINE
  5
390
330
328
100
AcDbEntity
  8
0
  6
CONTINUOUS
 62
     7
100
AcDbLine
 10
71.337361
 20
43.757829
 30
0.0
 11
71.353621
 21
43.756658
 31
0.0
  0
LINE
  5
391
330
328
100
AcDbEntity
  8
0
  6
CONTINUOUS
 62
     7
100
AcDbLine
 10
71.353621
 20
43.756658
 30
0.0
 11
71.36831
 21
43.75558
 31
0.0
  0
LINE
  5
392
330
328
100
AcDbEntity
  8
0
  6
CONTINUOUS
 62
     7
100
AcDbLine
 10
71.36831
 20
43.75558
 30
0.0
 11
71.381295
 21
43.75461
 31
0.0
  0
LINE
  5
393
330
328
100
AcDbEntity
  8
0
  6
CONTINUOUS
 62
     7
100
AcDbLine
 10
71.381295
 20
43.75461
 30
0.0
 11
71.401623
 21
43.753063
 31
0.0
  0
LINE
  5
394
330
328
100
AcDbEntity
  8
0
  6
CONTINUOUS
 62
     7
100
AcDbLine
 10
71.401623
 20
43.753063
 30
0.0
 11
71.418558
 21
43.751748
 31
0.0
  0
LINE
  5
395
330
328
100
AcDbEntity
  8
0
  6
CONTINUOUS
 62
     7
100
AcDbLine
 10
71.418558
 20
43.751748
 30
0.0
 11
71.425173
 21
43.751209
 31
0.0
  0
ENDBLK
  5
32A
330
328
100
AcDbEntity
  8
0
100
AcDbBlockEnd
  0
BLOCK
  5
3A1
330
3A0
100
AcDbEntity
  8
0
100
AcDbBlockBegin
  2
BLKF018
 70
     0
 71
     0
 10
0.0
 20
0.0
 30
0.0
  3
BLKF018
  1

  0
LINE
  5
3A4
330
3A0
100
AcDbEntity
  8
CSLAYER2
  6
CONTINUOUS
 62
     3
100
AcDbLine
 10
56.935429
 20
35.664776
 30
0.0
 11
54.935429
 21
36.200674
 31
0.0
  0
LINE
  5
3A5
330
3A0
100
AcDbEntity
  8
CSLAYER2
  6
CONTINUOUS
 62
     3
100
AcDbLine
 10
54.935429
 20
36.200674
 30
0.0
 11
56.935429
 21
36.736572
 31
0.0
  0
LINE
  5
3A6
330
3A0
100
AcDbEntity
  8
CSLAYER2
  6
CONTINUOUS
 62
     3
100
AcDbLine
 10
54.935429
 20
36.200674
 30
0.0
 11
56.935429
 21
36.200674
 31
0.0
  0
LINE
  5
3A7
330
3A0
100
AcDbEntity
  8
CSLAYER2
  6
CONTINUOUS
 62
     3
100
AcDbLine
 10
64.435429
 20
36.736572
 30
0.0
 11
66.435429
 21
36.200674
 31
0.0
  0
LINE
  5
3A8
330
3A0
100
AcDbEntity
  8
CSLAYER2
  6
CONTINUOUS
 62
     3
100
AcDbLine
 10
66.435429
 20
36.200674
 30
0.0
 11
64.435429
 21
35.664776
 31
0.0
  0
LINE
  5
3A9
330
3A0
100
AcDbEntity
  8
CSLAYER2
  6
CONTINUOUS
 62
     3
100
AcDbLine
 10
66.435429
 20
36.200674
 30
0.0
 11
64.435429
 21
36.200674
 31
0.0
  0
LINE
  5
3AA
330
3A0
100
AcDbEntity
  8
CSLAYER2
  6
CONTINUOUS
 62
     3
100
AcDbLine
 10
54.935429
 20
49.768024
 30
0.0
 11
54.935429
 21
35.400674
 31
0.0
  0
LINE
  5
3AB
330
3A0
100
AcDbEntity
  8
CSLAYER2
  6
CONTINUOUS
 62
     3
100
AcDbLine
 10
66.435429
 20
48.090674
 30
0.0
 11
66.435429
 21
35.400674
 31
0.0
  0
LINE
  5
3AC
330
3A0
100
AcDbEntity
  8
CSLAYER2
  6
CONTINUOUS
 62
     3
100
AcDbLine
 10
54.935429
 20
36.200674
 30
0.0
 11
66.435429
 21
36.200674
 31
0.0
  0
TEXT
  5
3AD
330
3A0
100
AcDbEntity
  8
CSLAYER2
 62
     3
100
AcDbText
 10
56.662514
 20
37.067879
 30
0.0
 40
3.0
  1
11.5
 41
0.877612
  7
ED_VECTOR
 72
     5
 11
65.062513
 21
37.067879
 31
0.0
100
AcDbText
  0
ENDBLK
  5
3A2
330
3A0
100
AcDbEntity
  8
0
100
AcDbBlockEnd
  0
BLOCK
  5
3AF
330
3AE
100
AcDbEntity
  8
0
100
AcDbBlockBegin
  2
BLKF019
 70
     0
 71
     0
 10
0.0
 20
0.0
 30
0.0
  3
BLKF019
  1

  0
LINE
  5
3B2
330
3AE
100
AcDbEntity
  8
CSLAYER2
  6
CONTINUOUS
 62
     3
100
AcDbLine
 10
56.935429
 20
27.58938
 30
0.0
 11
54.935429
 21
28.125278
 31
0.0
  0
LINE
  5
3B3
330
3AE
100
AcDbEntity
  8
CSLAYER2
  6
CONTINUOUS
 62
     3
100
AcDbLine
 10
54.935429
 20
28.125278
 30
0.0
 11
56.935429
 21
28.661176
 31
0.0
  0
LINE
  5
3B4
330
3AE
100
AcDbEntity
  8
CSLAYER2
  6
CONTINUOUS
 62
     3
100
AcDbLine
 10
54.935429
 20
28.125278
 30
0.0
 11
56.935429
 21
28.125278
 31
0.0
  0
LINE
  5
3B5
330
3AE
100
AcDbEntity
  8
CSLAYER2
  6
CONTINUOUS
 62
     3
100
AcDbLine
 10
67.506932
 20
28.661176
 30
0.0
 11
69.506932
 21
28.125278
 31
0.0
  0
LINE
  5
3B6
330
3AE
100
AcDbEntity
  8
CSLAYER2
  6
CONTINUOUS
 62
     3
100
AcDbLine
 10
69.506932
 20
28.125278
 30
0.0
 11
67.506932
 21
27.58938
 31
0.0
  0
LINE
  5
3B7
330
3AE
100
AcDbEntity
  8
CSLAYER2
  6
CONTINUOUS
 62
     3
100
AcDbLine
 10
69.506932
 20
28.125278
 30
0.0
 11
67.506932
 21
28.125278
 31
0.0
  0
LINE
  5
3B8
330
3AE
100
AcDbEntity
  8
CSLAYER2
  6
CONTINUOUS
 62
     3
100
AcDbLine
 10
54.935429
 20
49.768024
 30
0.0
 11
54.935429
 21
27.325278
 31
0.0
  0
LINE
  5
3B9
330
3AE
100
AcDbEntity
  8
CSLAYER2
  6
CONTINUOUS
 62
     3
100
AcDbLine
 10
69.506932
 20
43.940674
 30
0.0
 11
69.506932
 21
27.325278
 31
0.0
  0
LINE
  5
3BA
330
3AE
100
AcDbEntity
  8
CSLAYER2
  6
CONTINUOUS
 62
     3
100
AcDbLine
 10
54.935429
 20
28.125278
 30
0.0
 11
69.506932
 21
28.125278
 31
0.0
  0
TEXT
  5
3BB
330
3AE
100
AcDbEntity
  8
CSLAYER2
 62
     3
100
AcDbText
 10
55.742722
 20
28.992481
 30
0.0
 40
3.0
  1
(14.6)
 41
0.938298
  7
ED_VECTOR
 72
     5
 11
68.342721
 21
28.992481
 31
0.0
100
AcDbText
  0
ENDBLK
  5
3B0
330
3AE
100
AcDbEntity
  8
0
100
AcDbBlockEnd
  0
BLOCK
  5
3BD
330
3BC
100
AcDbEntity
  8
0
100
AcDbBlockBegin
  2
BLKF020
 70
     0
 71
     0
 10
0.0
 20
0.0
 30
0.0
  3
BLKF020
  1

  0
LINE
  5
3C0
330
3BC
100
AcDbEntity
  8
CSLAYER2
  6
CONTINUOUS
 62
     3
100
AcDbLine
 10
56.935429
 20
20.264102
 30
0.0
 11
54.935429
 21
20.8
 31
0.0
  0
LINE
  5
3C1
330
3BC
100
AcDbEntity
  8
CSLAYER2
  6
CONTINUOUS
 62
     3
100
AcDbLine
 10
54.935429
 20
20.8
 30
0.0
 11
56.935429
 21
21.335898
 31
0.0
  0
LINE
  5
3C2
330
3BC
100
AcDbEntity
  8
CSLAYER2
  6
CONTINUOUS
 62
     3
100
AcDbLine
 10
54.935429
 20
20.8
 30
0.0
 11
56.935429
 21
20.8
 31
0.0
  0
LINE
  5
3C3
330
3BC
100
AcDbEntity
  8
CSLAYER2
  6
CONTINUOUS
 62
     3
100
AcDbLine
 10
155.706932
 20
21.335898
 30
0.0
 11
157.706932
 21
20.8
 31
0.0
  0
LINE
  5
3C4
330
3BC
100
AcDbEntity
  8
CSLAYER2
  6
CONTINUOUS
 62
     3
100
AcDbLine
 10
157.706932
 20
20.8
 30
0.0
 11
155.706932
 21
20.264102
 31
0.0
  0
LINE
  5
3C5
330
3BC
100
AcDbEntity
  8
CSLAYER2
  6
CONTINUOUS
 62
     3
100
AcDbLine
 10
157.706932
 20
20.8
 30
0.0
 11
155.706932
 21
20.8
 31
0.0
  0
LINE
  5
3C6
330
3BC
100
AcDbEntity
  8
CSLAYER2
  6
CONTINUOUS
 62
     3
100
AcDbLine
 10
54.935429
 20
49.768024
 30
0.0
 11
54.935429
 21
20.0
 31
0.0
  0
LINE
  5
3C7
330
3BC
100
AcDbEntity
  8
CSLAYER2
  6
CONTINUOUS
 62
     3
100
AcDbLine
 10
157.706932
 20
45.240674
 30
0.0
 11
157.706932
 21
20.0
 31
0.0
  0
LINE
  5
3C8
330
3BC
100
AcDbEntity
  8
CSLAYER2
  6
CONTINUOUS
 62
     3
100
AcDbLine
 10
54.935429
 20
20.8
 30
0.0
 11
157.706932
 21
20.8
 31
0.0
  0
TEXT
  5
3C9
330
3BC
100
AcDbEntity
  8
CSLAYER2
 62
     3
100
AcDbText
 10
100.748116
 20
21.667204
 30
0.0
 40
3.0
  1
(102.8)
 41
0.902632
  7
ED_VECTOR
 72
     5
 11
115.448115
 21
21.667204
 31
0.0
100
AcDbText
  0
ENDBLK
  5
3BE
330
3BC
100
AcDbEntity
  8
0
100
AcDbBlockEnd
  0
BLOCK
  5
3CB
330
3CA
100
AcDbEntity
  8
0
100
AcDbBlockBegin
  2
BLKF021
 70
     0
 71
     0
 10
0.0
 20
0.0
 30
0.0
  3
BLKF021
  1

  0
LINE
  5
3CE
330
3CA
100
AcDbEntity
  8
CSLAYER2
  6
CONTINUOUS
 62
     3
100
AcDbLine
 10
35.829646
 20
45.300674
 30
0.0
 11
36.365544
 21
47.300674
 31
0.0
  0
LINE
  5
3CF
330
3CA
100
AcDbEntity
  8
CSLAYER2
  6
CONTINUOUS
 62
     3
100
AcDbLine
 10
36.365544
 20
47.300674
 30
0.0
 11
36.901442
 21
45.300674
 31
0.0
  0
LINE
  5
3D0
330
3CA
100
AcDbEntity
  8
CSLAYER2
  6
CONTINUOUS
 62
     3
100
AcDbLine
 10
36.365544
 20
47.300674
 30
0.0
 11
36.365544
 21
45.300674
 31
0.0
  0
LINE
  5
3D1
330
3CA
100
AcDbEntity
  8
CSLAYER2
  6
CONTINUOUS
 62
     3
100
AcDbLine
 10
36.901442
 20
61.100674
 30
0.0
 11
36.365544
 21
59.100674
 31
0.0
  0
LINE
  5
3D2
330
3CA
100
AcDbEntity
  8
CSLAYER2
  6
CONTINUOUS
 62
     3
100
AcDbLine
 10
36.365544
 20
59.100674
 30
0.0
 11
35.829646
 21
61.100674
 31
0.0
  0
LINE
  5
3D3
330
3CA
100
AcDbEntity
  8
CSLAYER2
  6
CONTINUOUS
 62
     3
100
AcDbLine
 10
36.365544
 20
59.100674
 30
0.0
 11
36.365544
 21
61.100674
 31
0.0
  0
LINE
  5
3D4
330
3CA
100
AcDbEntity
  8
CSLAYER2
  6
CONTINUOUS
 62
     3
100
AcDbLine
 10
58.484275
 20
47.300674
 30
0.0
 11
35.565544
 21
47.300674
 31
0.0
  0
LINE
  5
3D5
330
3CA
100
AcDbEntity
  8
CSLAYER2
  6
CONTINUOUS
 62
     3
100
AcDbLine
 10
58.484275
 20
59.100674
 30
0.0
 11
35.565544
 21
59.100674
 31
0.0
  0
LINE
  5
3D6
330
3CA
100
AcDbEntity
  8
CSLAYER2
  6
CONTINUOUS
 62
     3
100
AcDbLine
 10
36.365544
 20
47.300674
 30
0.0
 11
36.365544
 21
44.300674
 31
0.0
  0
LINE
  5
3D7
330
3CA
100
AcDbEntity
  8
CSLAYER2
  6
CONTINUOUS
 62
     3
100
AcDbLine
 10
36.365544
 20
47.300674
 30
0.0
 11
36.365544
 21
59.100674
 31
0.0
  0
LINE
  5
3D8
330
3CA
100
AcDbEntity
  8
CSLAYER2
  6
CONTINUOUS
 62
     3
100
AcDbLine
 10
36.365544
 20
59.100674
 30
0.0
 11
36.365544
 21
62.100674
 31
0.0
  0
TEXT
  5
3D9
330
3CA
100
AcDbEntity
  8
CSLAYER2
 62
     3
100
AcDbText
 10
35.498341
 20
47.519215
 30
0.0
 40
3.0
  1
%%c
 50
90.0
 41
0.864706
  7
ED_VECTOR
 72
     5
 11
35.498341
 21
49.619215
 31
0.0
100
AcDbText
  0
TEXT
  5
3DA
330
3CA
100
AcDbEntity
  8
CSLAYER2
 62
     3
100
AcDbText
 10
35.498341
 20
50.8363
 30
0.0
 40
3.0
  1
11.8
 50
90.0
 41
0.877612
  7
ED_VECTOR
 72
     5
 11
35.498341
 21
59.2363
 31
0.0
100
AcDbText
  0
ENDBLK
  5
3CC
330
3CA
100
AcDbEntity
  8
0
100
AcDbBlockEnd
  0
BLOCK
  5
3DC
330
3DB
100
AcDbEntity
  8
0
100
AcDbBlockBegin
  2
BLKF022
 70
     0
 71
     0
 10
0.0
 20
0.0
 30
0.0
  3
BLKF022
  1

  0
LINE
  5
3DF
330
3DB
100
AcDbEntity
  8
CSLAYER2
  6
CONTINUOUS
 62
     3
100
AcDbLine
 10
26.521327
 20
65.200674
 30
0.0
 11
25.985429
 21
63.200674
 31
0.0
  0
LINE
  5
3E0
330
3DB
100
AcDbEntity
  8
CSLAYER2
  6
CONTINUOUS
 62
     3
100
AcDbLine
 10
25.985429
 20
63.200674
 30
0.0
 11
25.449531
 21
65.200674
 31
0.0
  0
LINE
  5
3E1
330
3DB
100
AcDbEntity
  8
CSLAYER2
  6
CONTINUOUS
 62
     3
100
AcDbLine
 10
25.985429
 20
63.200674
 30
0.0
 11
25.985429
 21
65.200674
 31
0.0
  0
LINE
  5
3E2
330
3DB
100
AcDbEntity
  8
CSLAYER2
  6
CONTINUOUS
 62
     3
100
AcDbLine
 10
25.449531
 20
41.200674
 30
0.0
 11
25.985429
 21
43.200674
 31
0.0
  0
LINE
  5
3E3
330
3DB
100
AcDbEntity
  8
CSLAYER2
  6
CONTINUOUS
 62
     3
100
AcDbLine
 10
25.985429
 20
43.200674
 30
0.0
 11
26.521327
 21
41.200674
 31
0.0
  0
LINE
  5
3E4
330
3DB
100
AcDbEntity
  8
CSLAYER2
  6
CONTINUOUS
 62
     3
100
AcDbLine
 10
25.985429
 20
43.200674
 30
0.0
 11
25.985429
 21
41.200674
 31
0.0
  0
LINE
  5
3E5
330
3DB
100
AcDbEntity
  8
CSLAYER2
  6
CONTINUOUS
 62
     3
100
AcDbLine
 10
75.896932
 20
63.200674
 30
0.0
 11
25.185429
 21
63.200674
 31
0.0
  0
LINE
  5
3E6
330
3DB
100
AcDbEntity
  8
CSLAYER2
  6
CONTINUOUS
 62
     3
100
AcDbLine
 10
75.896932
 20
43.200674
 30
0.0
 11
25.185429
 21
43.200674
 31
0.0
  0
LINE
  5
3E7
330
3DB
100
AcDbEntity
  8
CSLAYER2
  6
CONTINUOUS
 62
     3
100
AcDbLine
 10
25.985429
 20
63.200674
 30
0.0
 11
25.985429
 21
66.200674
 31
0.0
  0
LINE
  5
3E8
330
3DB
100
AcDbEntity
  8
CSLAYER2
  6
CONTINUOUS
 62
     3
100
AcDbLine
 10
25.985429
 20
63.200674
 30
0.0
 11
25.985429
 21
43.200674
 31
0.0
  0
LINE
  5
3E9
330
3DB
100
AcDbEntity
  8
CSLAYER2
  6
CONTINUOUS
 62
     3
100
AcDbLine
 10
25.985429
 20
43.200674
 30
0.0
 11
25.985429
 21
40.200674
 31
0.0
  0
TEXT
  5
3EA
330
3DB
100
AcDbEntity
  8
CSLAYER2
 62
     3
100
AcDbText
 10
25.118225
 20
45.138382
 30
0.0
 40
3.0
  1
%%c
 50
90.0
 41
0.864706
  7
ED_VECTOR
 72
     5
 11
25.118225
 21
47.238382
 31
0.0
100
AcDbText
  0
TEXT
  5
3EB
330
3DB
100
AcDbEntity
  8
CSLAYER2
 62
     3
100
AcDbText
 10
25.118225
 20
48.455463
 30
0.0
 40
3.0
  1
20
 50
90.0
 41
0.794595
  7
ED_VECTOR
 72
     5
 11
25.118225
 21
52.655463
 31
0.0
100
AcDbText
  0
TEXT
  5
3EC
330
3DB
100
AcDbEntity
  8
CSLAYER2
 62
     3
100
AcDbText
 10
25.193333
 20
55.109631
 30
0.0
 40
2.4
  1
-
 50
90.0
 41
0.668182
  7
ED_VECTOR
 72
     5
 11
25.193333
 21
56.789631
 31
0.0
100
AcDbText
  0
TEXT
  5
3ED
330
3DB
100
AcDbEntity
  8
CSLAYER2
 62
     3
100
AcDbText
 10
22.4
 20
56.506298
 30
0.0
 40
2.4
  1
0
 50
90.0
 41
0.864706
  7
ED_VECTOR
 72
     5
 11
22.4
 21
58.186298
 31
0.0
100
AcDbText
  0
TEXT
  5
3EE
330
3DB
100
AcDbEntity
  8
CSLAYER2
 62
     3
100
AcDbText
 10
25.193333
 20
56.506298
 30
0.0
 40
2.4
  1
0.01
 50
90.0
 41
0.963934
  7
ED_VECTOR
 72
     5
 11
25.193333
 21
63.226298
 31
0.0
100
AcDbText
  0
ENDBLK
  5
3DD
330
3DB
100
AcDbEntity
  8
0
100
AcDbBlockEnd
  0
BLOCK
  5
3F0
330
3EF
100
AcDbEntity
  8
0
100
AcDbBlockBegin
  2
BLKF023
 70
     0
 71
     0
 10
0.0
 20
0.0
 30
0.0
  3
BLKF023
  1

  0
LINE
  5
3F3
330
3EF
100
AcDbEntity
  8
CSLAYER2
  6
CONTINUOUS
 62
     3
100
AcDbLine
 10
147.606932
 20
28.661176
 30
0.0
 11
149.606932
 21
28.125278
 31
0.0
  0
LINE
  5
3F4
330
3EF
100
AcDbEntity
  8
CSLAYER2
  6
CONTINUOUS
 62
     3
100
AcDbLine
 10
149.606932
 20
28.125278
 30
0.0
 11
147.606932
 21
27.58938
 31
0.0
  0
LINE
  5
3F5
330
3EF
100
AcDbEntity
  8
CSLAYER2
  6
CONTINUOUS
 62
     3
100
AcDbLine
 10
149.606932
 20
28.125278
 30
0.0
 11
147.606932
 21
28.125278
 31
0.0
  0
LINE
  5
3F6
330
3EF
100
AcDbEntity
  8
CSLAYER2
  6
CONTINUOUS
 62
     3
100
AcDbLine
 10
159.706932
 20
27.58938
 30
0.0
 11
157.706932
 21
28.125278
 31
0.0
  0
LINE
  5
3F7
330
3EF
100
AcDbEntity
  8
CSLAYER2
  6
CONTINUOUS
 62
     3
100
AcDbLine
 10
157.706932
 20
28.125278
 30
0.0
 11
159.706932
 21
28.661176
 31
0.0
  0
LINE
  5
3F8
330
3EF
100
AcDbEntity
  8
CSLAYER2
  6
CONTINUOUS
 62
     3
100
AcDbLine
 10
157.706932
 20
28.125278
 30
0.0
 11
159.706932
 21
28.125278
 31
0.0
  0
LINE
  5
3F9
330
3EF
100
AcDbEntity
  8
CSLAYER2
  6
CONTINUOUS
 62
     3
100
AcDbLine
 10
149.606932
 20
43.840674
 30
0.0
 11
149.606932
 21
27.325278
 31
0.0
  0
LINE
  5
3FA
330
3EF
100
AcDbEntity
  8
CSLAYER2
  6
CONTINUOUS
 62
     3
100
AcDbLine
 10
157.706932
 20
45.240674
 30
0.0
 11
157.706932
 21
27.325278
 31
0.0
  0
LINE
  5
3FB
330
3EF
100
AcDbEntity
  8
CSLAYER2
  6
CONTINUOUS
 62
     3
100
AcDbLine
 10
149.606932
 20
28.125278
 30
0.0
 11
146.606932
 21
28.125278
 31
0.0
  0
LINE
  5
3FC
330
3EF
100
AcDbEntity
  8
CSLAYER2
  6
CONTINUOUS
 62
     3
100
AcDbLine
 10
149.606932
 20
28.125278
 30
0.0
 11
157.706932
 21
28.125278
 31
0.0
  0
LINE
  5
3FD
330
3EF
100
AcDbEntity
  8
CSLAYER2
  6
CONTINUOUS
 62
     3
100
AcDbLine
 10
157.706932
 20
28.125278
 30
0.0
 11
160.706932
 21
28.125278
 31
0.0
  0
TEXT
  5
3FE
330
3EF
100
AcDbEntity
  8
CSLAYER2
 62
     3
100
AcDbText
 10
150.506927
 20
28.992481
 30
0.0
 40
3.0
  1
8.1
 41
1.07561
  7
ED_VECTOR
 72
     5
 11
156.806927
 21
28.992481
 31
0.0
100
AcDbText
  0
ENDBLK
  5
3F1
330
3EF
100
AcDbEntity
  8
0
100
AcDbBlockEnd
  0
BLOCK
  5
400
330
3FF
100
AcDbEntity
  8
0
100
AcDbBlockBegin
  2
BLKF024
 70
     0
 71
     0
 10
0.0
 20
0.0
 30
0.0
  3
BLKF024
  1

  0
LINE
  5
403
330
3FF
100
AcDbEntity
  8
CSLAYER2
  6
CONTINUOUS
 62
     3
100
AcDbLine
 10
71.506932
 20
27.58938
 30
0.0
 11
69.506932
 21
28.125278
 31
0.0
  0
LINE
  5
404
330
3FF
100
AcDbEntity
  8
CSLAYER2
  6
CONTINUOUS
 62
     3
100
AcDbLine
 10
69.506932
 20
28.125278
 30
0.0
 11
71.506932
 21
28.661176
 31
0.0
  0
LINE
  5
405
330
3FF
100
AcDbEntity
  8
CSLAYER2
  6
CONTINUOUS
 62
     3
100
AcDbLine
 10
69.506932
 20
28.125278
 30
0.0
 11
71.506932
 21
28.125278
 31
0.0
  0
LINE
  5
406
330
3FF
100
AcDbEntity
  8
CSLAYER2
  6
CONTINUOUS
 62
     3
100
AcDbLine
 10
147.606932
 20
28.661176
 30
0.0
 11
149.606932
 21
28.125278
 31
0.0
  0
LINE
  5
407
330
3FF
100
AcDbEntity
  8
CSLAYER2
  6
CONTINUOUS
 62
     3
100
AcDbLine
 10
149.606932
 20
28.125278
 30
0.0
 11
147.606932
 21
27.58938
 31
0.0
  0
LINE
  5
408
330
3FF
100
AcDbEntity
  8
CSLAYER2
  6
CONTINUOUS
 62
     3
100
AcDbLine
 10
149.606932
 20
28.125278
 30
0.0
 11
147.606932
 21
28.125278
 31
0.0
  0
LINE
  5
409
330
3FF
100
AcDbEntity
  8
CSLAYER2
  6
CONTINUOUS
 62
     3
100
AcDbLine
 10
69.506932
 20
43.940674
 30
0.0
 11
69.506932
 21
27.325278
 31
0.0
  0
LINE
  5
40A
330
3FF
100
AcDbEntity
  8
CSLAYER2
  6
CONTINUOUS
 62
     3
100
AcDbLine
 10
149.606932
 20
43.840674
 30
0.0
 11
149.606932
 21
27.325278
 31
0.0
  0
LINE
  5
40B
330
3FF
100
AcDbEntity
  8
CSLAYER2
  6
CONTINUOUS
 62
     3
100
AcDbLine
 10
69.506932
 20
28.125278
 30
0.0
 11
149.606932
 21
28.125278
 31
0.0
  0
TEXT
  5
40C
330
3FF
100
AcDbEntity
  8
CSLAYER2
 62
     3
100
AcDbText
 10
105.534012
 20
28.992481
 30
0.0
 40
3.0
  1
80.1
 41
0.963934
  7
ED_VECTOR
 72
     5
 11
113.934011
 21
28.992481
 31
0.0
100
AcDbText
  0
ENDBLK
  5
401
330
3FF
100
AcDbEntity
  8
0
100
AcDbBlockEnd
  0
ENDSEC
  0
SECTION
  2
ENTITIES
  0
LINE
  5
6F
330
1F
100
AcDbEntity
  8
0
  6
CONTINUOUS
 62
     7
100
AcDbLine
 10
75.906932
 20
43.200674
 30
0.0
 11
132.006932
 21
43.200674
 31
0.0
  0
LINE
  5
70
330
1F
100
AcDbEntity
  8
0
  6
CONTINUOUS
 62
     7
100
AcDbLine
 10
132.006932
 20
63.200674
 30
0.0
 11
75.906932
 21
63.200674
 31
0.0
  0
LINE
  5
71
330
1F
100
AcDbEntity
  8
0
  6
CONTINUOUS
 62
     7
100
AcDbLine
 10
73.940065
 20
43.210674
 30
0.0
 11
75.906932
 21
43.210674
 31
0.0
  0
LINE
  5
72
330
1F
100
AcDbEntity
  8
0
  6
CONTINUOUS
 62
     7
100
AcDbLine
 10
75.906932
 20
63.190674
 30
0.0
 11
73.940065
 21
63.190674
 31
0.0
  0
LINE
  5
73
330
1F
100
AcDbEntity
  8
0
  6
CONTINUOUS
 62
     7
100
AcDbLine
 10
73.940065
 20
63.190674
 30
0.0
 11
71.906932
 21
62.450674
 31
0.0
  0
LINE
  5
74
330
1F
100
AcDbEntity
  8
0
  6
CONTINUOUS
 62
     7
100
AcDbLine
 10
71.906932
 20
43.950674
 30
0.0
 11
73.940065
 21
43.210674
 31
0.0
  0
LINE
  5
75
330
1F
100
AcDbEntity
  8
0
  6
CONTINUOUS
 62
     7
100
AcDbLine
 10
132.006932
 20
43.210674
 30
0.0
 11
147.206932
 21
43.210674
 31
0.0
  0
LINE
  5
76
330
1F
100
AcDbEntity
  8
0
  6
CONTINUOUS
 62
     7
100
AcDbLine
 10
147.206932
 20
63.190674
 30
0.0
 11
132.006932
 21
63.190674
 31
0.0
  0
LINE
  5
77
330
1F
100
AcDbEntity
  8
0
  6
CONTINUOUS
 62
     7
100
AcDbLine
 10
147.206932
 20
43.210674
 30
0.0
 11
147.306934
 21
43.310674
 31
0.0
  0
LINE
  5
78
330
1F
100
AcDbEntity
  8
0
  6
CONTINUOUS
 62
     7
100
AcDbLine
 10
147.306934
 20
63.090674
 30
0.0
 11
147.206932
 21
63.190674
 31
0.0
  0
LINE
  5
79
330
1F
100
AcDbEntity
  8
0
  6
CONTINUOUS
 62
     7
100
AcDbLine
 10
66.806932
 20
48.500674
 30
0.0
 11
66.906932
 21
48.600674
 31
0.0
  0
LINE
  5
7A
330
1F
100
AcDbEntity
  8
0
  6
CONTINUOUS
 62
     7
100
AcDbLine
 10
66.906932
 20
57.800674
 30
0.0
 11
66.806932
 21
57.900674
 31
0.0
  0
LINE
  5
7B
330
1F
100
AcDbEntity
  8
0
  6
CONTINUOUS
 62
     7
100
AcDbLine
 10
66.806932
 20
57.900674
 30
0.0
 11
66.435429
 21
57.900674
 31
0.0
  0
LINE
  5
7C
330
1F
100
AcDbEntity
  8
0
  6
CONTINUOUS
 62
     7
100
AcDbLine
 10
66.435429
 20
48.500674
 30
0.0
 11
66.806932
 21
48.500674
 31
0.0
  0
LINE
  5
7D
330
1F
100
AcDbEntity
  8
0
  6
CONTINUOUS
 62
     7
100
AcDbLine
 10
69.406932
 20
48.600674
 30
0.0
 11
69.506932
 21
48.600674
 31
0.0
  0
LINE
  5
7E
330
1F
100
AcDbEntity
  8
0
  6
CONTINUOUS
 62
     7
100
AcDbLine
 10
66.906932
 20
48.600674
 30
0.0
 11
67.006932
 21
48.600674
 31
0.0
  0
LINE
  5
7F
330
1F
100
AcDbEntity
  8
0
  6
CONTINUOUS
 62
     7
100
AcDbLine
 10
67.006932
 20
57.800674
 30
0.0
 11
66.906932
 21
57.800674
 31
0.0
  0
LINE
  5
80
330
1F
100
AcDbEntity
  8
0
  6
CONTINUOUS
 62
     7
100
AcDbLine
 10
69.506932
 20
57.800674
 30
0.0
 11
69.406932
 21
57.800674
 31
0.0
  0
ARC
  5
81
330
1F
100
AcDbEntity
  8
0
  6
CONTINUOUS
 62
     7
100
AcDbCircle
 10
45.135429
 20
54.500674
 30
0.0
 40
0.2000000000000028
100
AcDbArc
 50
90.0
 51
180.0
  0
ARC
  5
82
330
1F
100
AcDbEntity
  8
0
  6
CONTINUOUS
 62
     7
100
AcDbCircle
 10
45.135429
 20
51.900674
 30
0.0
 40
0.2000000000000028
100
AcDbArc
 50
180.0
 51
270.0
  0
LINE
  5
83
330
1F
100
AcDbEntity
  8
0
  6
CONTINUOUS
 62
     7
100
AcDbLine
 10
45.135429
 20
51.700674
 30
0.0
 11
54.935429
 21
51.700674
 31
0.0
  0
LINE
  5
84
330
1F
100
AcDbEntity
  8
0
  6
CONTINUOUS
 62
     7
100
AcDbLine
 10
54.935429
 20
54.700674
 30
0.0
 11
45.135429
 21
54.700674
 31
0.0
  0
LINE
  5
85
330
1F
100
AcDbEntity
  8
0
  6
CONTINUOUS
 62
     7
100
AcDbLine
 10
58.494275
 20
47.300674
 30
0.0
 11
58.785832
 21
47.300674
 31
0.0
  0
LINE
  5
86
330
1F
100
AcDbEntity
  8
0
  6
CONTINUOUS
 62
     7
100
AcDbLine
 10
58.785832
 20
59.100674
 30
0.0
 11
58.494275
 21
59.100674
 31
0.0
  0
ARC
  5
87
330
1F
100
AcDbEntity
  8
0
  6
CONTINUOUS
 62
     7
100
AcDbCircle
 10
65.635429
 20
58.300674
 30
0.0
 40
0.8000000000000114
100
AcDbArc
 50
0.0
 51
90.0
  0
ARC
  5
88
330
1F
100
AcDbEntity
  8
0
  6
CONTINUOUS
 62
     7
100
AcDbCircle
 10
65.635429
 20
48.100674
 30
0.0
 40
0.8000000000000114
100
AcDbArc
 50
270.0
 51
360.0
  0
LINE
  5
89
330
1F
100
AcDbEntity
  8
0
  6
CONTINUOUS
 62
     7
100
AcDbLine
 10
62.085832
 20
47.300674
 30
0.0
 11
65.635429
 21
47.300674
 31
0.0
  0
LINE
  5
8A
330
1F
100
AcDbEntity
  8
0
  6
CONTINUOUS
 62
     7
100
AcDbLine
 10
65.635429
 20
59.100674
 30
0.0
 11
62.085832
 21
59.100674
 31
0.0
  0
LINE
  5
8B
330
1F
100
AcDbEntity
  8
0
  6
CONTINUOUS
 62
     7
100
AcDbLine
 10
58.785832
 20
47.300674
 30
0.0
 11
58.935429
 21
47.450673
 31
0.0
  0
LINE
  5
8C
330
1F
100
AcDbEntity
  8
0
  6
CONTINUOUS
 62
     7
100
AcDbLine
 10
58.935429
 20
58.950674
 30
0.0
 11
58.785832
 21
59.100674
 31
0.0
  0
ARC
  5
8D
330
1F
100
AcDbEntity
  8
0
  6
CONTINUOUS
 62
     7
100
AcDbCircle
 10
58.494275
 20
58.100674
 30
0.0
 40
1.000000000000008
100
AcDbArc
 50
90.0
 51
120.0
  0
ARC
  5
8E
330
1F
100
AcDbEntity
  8
0
  6
CONTINUOUS
 62
     7
100
AcDbCircle
 10
58.494275
 20
48.300674
 30
0.0
 40
1.0
100
AcDbArc
 50
240.0
 51
270.0
  0
LINE
  5
8F
330
1F
100
AcDbEntity
  8
0
  6
CONTINUOUS
 62
     7
100
AcDbLine
 10
62.085832
 20
59.100674
 30
0.0
 11
61.93543
 21
58.950674
 31
0.0
  0
LINE
  5
90
330
1F
100
AcDbEntity
  8
0
  6
CONTINUOUS
 62
     7
100
AcDbLine
 10
61.93543
 20
47.450673
 30
0.0
 11
62.085832
 21
47.300674
 31
0.0
  0
LINE
  5
91
330
1F
100
AcDbEntity
  8
0
  6
CONTINUOUS
 62
     7
100
AcDbLine
 10
57.994274
 20
58.966699
 30
0.0
 11
55.435428
 21
57.489349
 31
0.0
  0
LINE
  5
92
330
1F
100
AcDbEntity
  8
0
  6
CONTINUOUS
 62
     7
100
AcDbLine
 10
55.435428
 20
48.911999
 30
0.0
 11
57.994274
 21
47.434649
 31
0.0
  0
ARC
  5
93
330
1F
100
AcDbEntity
  8
0
  6
CONTINUOUS
 62
     7
100
AcDbCircle
 10
55.935429
 20
49.778024
 30
0.0
 40
1.000000000000015
100
AcDbArc
 50
180.0
 51
240.0
  0
ARC
  5
94
330
1F
100
AcDbEntity
  8
0
  6
CONTINUOUS
 62
     7
100
AcDbCircle
 10
55.935429
 20
56.623324
 30
0.0
 40
1.000000000000014
100
AcDbArc
 50
120.0
 51
180.0
  0
ARC
  5
95
330
1F
100
AcDbEntity
  8
0
  6
CONTINUOUS
 62
     7
100
AcDbCircle
 10
150.106932
 20
61.700674
 30
0.0
 40
0.5
100
AcDbArc
 50
0.0
 51
180.0
  0
ARC
  5
96
330
1F
100
AcDbEntity
  8
0
  6
CONTINUOUS
 62
     7
100
AcDbCircle
 10
150.106932
 20
44.700674
 30
0.0
 40
0.5
100
AcDbArc
 50
180.0
 51
360.0
  0
LINE
  5
97
330
1F
100
AcDbEntity
  8
0
  6
CONTINUOUS
 62
     7
100
AcDbLine
 10
150.60693
 20
44.700673
 30
0.0
 11
150.60693
 21
61.700674
 31
0.0
  0
LINE
  5
98
330
1F
100
AcDbEntity
  8
0
  6
CONTINUOUS
 62
     7
100
AcDbLine
 10
149.506934
 20
43.750674
 30
0.0
 11
149.606928
 21
43.850674
 31
0.0
  0
LINE
  5
99
330
1F
100
AcDbEntity
  8
0
  6
CONTINUOUS
 62
     7
100
AcDbLine
 10
149.606928
 20
62.550674
 30
0.0
 11
149.506934
 21
62.650674
 31
0.0
  0
LINE
  5
9A
330
1F
100
AcDbEntity
  8
0
  6
CONTINUOUS
 62
     7
100
AcDbLine
 10
149.29089
 20
43.750674
 30
0.0
 11
149.506934
 21
43.750674
 31
0.0
  0
LINE
  5
9B
330
1F
100
AcDbEntity
  8
0
  6
CONTINUOUS
 62
     7
100
AcDbLine
 10
147.406928
 20
43.750674
 30
0.0
 11
147.623062
 21
43.750674
 31
0.0
  0
LINE
  5
9C
330
1F
100
AcDbEntity
  8
0
  6
CONTINUOUS
 62
     7
100
AcDbLine
 10
147.622995
 20
62.650674
 30
0.0
 11
147.406928
 21
62.650674
 31
0.0
  0
LINE
  5
9D
330
1F
100
AcDbEntity
  8
0
  6
CONTINUOUS
 62
     7
100
AcDbLine
 10
149.506934
 20
62.650674
 30
0.0
 11
149.290845
 21
62.650674
 31
0.0
  0
LINE
  5
9E
330
1F
100
AcDbEntity
  8
0
  6
CONTINUOUS
 62
     7
100
AcDbLine
 10
147.406928
 20
62.650674
 30
0.0
 11
147.306934
 21
62.550674
 31
0.0
  0
LINE
  5
9F
330
1F
100
AcDbEntity
  8
0
  6
CONTINUOUS
 62
     7
100
AcDbLine
 10
147.306934
 20
43.850674
 30
0.0
 11
147.406928
 21
43.750674
 31
0.0
  0
LINE
  5
A0
330
1F
100
AcDbEntity
  8
0
  6
CONTINUOUS
 62
     7
100
AcDbLine
 10
153.406933
 20
44.750674
 30
0.0
 11
153.706931
 21
45.050674
 31
0.0
  0
LINE
  5
A1
330
1F
100
AcDbEntity
  8
0
  6
CONTINUOUS
 62
     7
100
AcDbLine
 10
153.706931
 20
61.350674
 30
0.0
 11
153.406933
 21
61.650674
 31
0.0
  0
LINE
  5
A2
330
1F
100
AcDbEntity
  8
0
  6
CONTINUOUS
 62
     7
100
AcDbLine
 10
150.906935
 20
44.750674
 30
0.0
 11
153.406933
 21
44.750674
 31
0.0
  0
LINE
  5
A3
330
1F
100
AcDbEntity
  8
0
  6
CONTINUOUS
 62
     7
100
AcDbLine
 10
153.406933
 20
61.650674
 30
0.0
 11
150.906935
 21
61.650674
 31
0.0
  0
LINE
  5
A4
330
1F
100
AcDbEntity
  8
0
  6
CONTINUOUS
 62
     7
100
AcDbLine
 10
157.506935
 20
45.050674
 30
0.0
 11
157.706931
 21
45.250673
 31
0.0
  0
LINE
  5
A5
330
1F
100
AcDbEntity
  8
0
  6
CONTINUOUS
 62
     7
100
AcDbLine
 10
157.706931
 20
61.150674
 30
0.0
 11
157.506935
 21
61.350674
 31
0.0
  0
LINE
  5
A6
330
1F
100
AcDbEntity
  8
0
  6
CONTINUOUS
 62
     7
100
AcDbLine
 10
153.706931
 20
45.050674
 30
0.0
 11
157.506935
 21
45.050674
 31
0.0
  0
LINE
  5
A7
330
1F
100
AcDbEntity
  8
0
  6
CONTINUOUS
 62
     7
100
AcDbLine
 10
157.506935
 20
61.350674
 30
0.0
 11
153.706931
 21
61.350674
 31
0.0
  0
LINE
  5
A8
330
1F
100
AcDbEntity
  8
0
  6
CONTINUOUS
 62
     7
100
AcDbLine
 10
150.60693
 20
45.200674
 30
0.0
 11
150.906935
 21
45.200674
 31
0.0
  0
LINE
  5
A9
330
1F
100
AcDbEntity
  8
0
  6
CONTINUOUS
 62
     7
100
AcDbLine
 10
150.906935
 20
61.200674
 30
0.0
 11
150.60693
 21
61.200674
 31
0.0
  0
LINE
  5
AA
330
1F
100
AcDbEntity
  8
0
  6
CONTINUOUS
 62
     7
100
AcDbLine
 10
71.425173
 20
43.750674
 30
0.0
 11
71.606932
 21
43.750674
 31
0.0
  0
LINE
  5
AB
330
1F
100
AcDbEntity
  8
0
  6
CONTINUOUS
 62
     7
100
AcDbLine
 10
69.706932
 20
43.750674
 30
0.0
 11
69.793029
 21
43.750674
 31
0.0
  0
LINE
  5
AC
330
1F
100
AcDbEntity
  8
0
  6
CONTINUOUS
 62
     7
100
AcDbLine
 10
69.790283
 20
62.650674
 30
0.0
 11
69.706932
 21
62.650674
 31
0.0
  0
LINE
  5
AD
330
1F
100
AcDbEntity
  8
0
  6
CONTINUOUS
 62
     7
100
AcDbLine
 10
71.606932
 20
62.650674
 30
0.0
 11
71.429126
 21
62.650674
 31
0.0
  0
LINE
  5
AE
330
1F
100
AcDbEntity
  8
0
  6
CONTINUOUS
 62
     7
100
AcDbLine
 10
69.706932
 20
62.650674
 30
0.0
 11
69.506932
 21
62.450674
 31
0.0
  0
LINE
  5
AF
330
1F
100
AcDbEntity
  8
0
  6
CONTINUOUS
 62
     7
100
AcDbLine
 10
69.506932
 20
43.950674
 30
0.0
 11
69.706932
 21
43.750674
 31
0.0
  0
LINE
  5
B0
330
1F
100
AcDbEntity
  8
0
  6
CONTINUOUS
 62
     7
100
AcDbLine
 10
71.606932
 20
43.750674
 30
0.0
 11
71.706932
 21
43.850674
 31
0.0
  0
LINE
  5
B1
330
1F
100
AcDbEntity
  8
0
  6
CONTINUOUS
 62
     7
100
AcDbLine
 10
71.706932
 20
62.550674
 30
0.0
 11
71.606932
 21
62.650674
 31
0.0
  0
LINE
  5
B2
330
1F
100
AcDbEntity
  8
0
  6
CONTINUOUS
 62
     7
100
AcDbLine
 10
71.706932
 20
45.700674
 30
0.0
 11
71.906932
 21
45.700674
 31
0.0
  0
LINE
  5
B3
330
1F
100
AcDbEntity
  8
0
  6
CONTINUOUS
 62
     7
100
AcDbLine
 10
71.906932
 20
60.700674
 30
0.0
 11
71.706932
 21
60.700674
 31
0.0
  0
LINE
  5
B4
330
1F
100
AcDbEntity
  8
0
  6
CONTINUOUS
 62
     7
100
AcDbLine
 10
75.906932
 20
53.200674
 30
0.0
 11
75.906932
 21
63.200674
 31
0.0
  0
LINE
  5
B5
330
1F
100
AcDbEntity
  8
0
  6
CONTINUOUS
 62
     7
100
AcDbLine
 10
75.906932
 20
43.200674
 30
0.0
 11
75.906932
 21
53.200674
 31
0.0
  0
LINE
  5
B6
330
1F
100
AcDbEntity
  8
0
  6
CONTINUOUS
 62
     7
100
AcDbLine
 10
132.006932
 20
53.200674
 30
0.0
 11
132.006932
 21
63.200674
 31
0.0
  0
LINE
  5
B7
330
1F
100
AcDbEntity
  8
0
  6
CONTINUOUS
 62
     7
100
AcDbLine
 10
132.006932
 20
43.200674
 30
0.0
 11
132.006932
 21
53.200674
 31
0.0
  0
LINE
  5
B8
330
1F
100
AcDbEntity
  8
0
  6
CONTINUOUS
 62
     7
100
AcDbLine
 10
73.940065
 20
53.200674
 30
0.0
 11
73.940065
 21
63.190674
 31
0.0
  0
LINE
  5
B9
330
1F
100
AcDbEntity
  8
0
  6
CONTINUOUS
 62
     7
100
AcDbLine
 10
73.940065
 20
43.210674
 30
0.0
 11
73.940065
 21
53.200674
 31
0.0
  0
LINE
  5
BA
330
1F
100
AcDbEntity
  8
0
  6
CONTINUOUS
 62
     7
100
AcDbLine
 10
71.906932
 20
53.200674
 30
0.0
 11
71.906932
 21
62.450674
 31
0.0
  0
LINE
  5
BB
330
1F
100
AcDbEntity
  8
0
  6
CONTINUOUS
 62
     7
100
AcDbLine
 10
71.906932
 20
43.950674
 30
0.0
 11
71.906932
 21
53.200674
 31
0.0
  0
LINE
  5
BC
330
1F
100
AcDbEntity
  8
0
  6
CONTINUOUS
 62
     7
100
AcDbLine
 10
147.306934
 20
53.200674
 30
0.0
 11
147.306934
 21
43.310674
 31
0.0
  0
LINE
  5
BD
330
1F
100
AcDbEntity
  8
0
  6
CONTINUOUS
 62
     7
100
AcDbLine
 10
147.306934
 20
63.090674
 30
0.0
 11
147.306934
 21
53.200674
 31
0.0
  0
LINE
  5
BE
330
1F
100
AcDbEntity
  8
0
  6
CONTINUOUS
 62
     7
100
AcDbLine
 10
66.906932
 20
48.600674
 30
0.0
 11
66.906932
 21
57.800674
 31
0.0
  0
LINE
  5
BF
330
1F
100
AcDbEntity
  8
0
  6
CONTINUOUS
 62
     7
100
AcDbLine
 10
69.406932
 20
49.200674
 30
0.0
 11
67.006932
 21
49.200674
 31
0.0
  0
LINE
  5
C0
330
1F
100
AcDbEntity
  8
0
  6
CONTINUOUS
 62
     7
100
AcDbLine
 10
67.006932
 20
49.200674
 30
0.0
 11
67.006932
 21
48.600674
 31
0.0
  0
LINE
  5
C1
330
1F
100
AcDbEntity
  8
0
  6
CONTINUOUS
 62
     7
100
AcDbLine
 10
69.406932
 20
49.200674
 30
0.0
 11
69.406932
 21
48.600674
 31
0.0
  0
LINE
  5
C2
330
1F
100
AcDbEntity
  8
0
  6
CONTINUOUS
 62
     7
100
AcDbLine
 10
67.006932
 20
57.800674
 30
0.0
 11
67.006932
 21
57.200674
 31
0.0
  0
LINE
  5
C3
330
1F
100
AcDbEntity
  8
0
  6
CONTINUOUS
 62
     7
100
AcDbLine
 10
69.406932
 20
57.200674
 30
0.0
 11
67.006932
 21
57.200674
 31
0.0
  0
LINE
  5
C4
330
1F
100
AcDbEntity
  8
0
  6
CONTINUOUS
 62
     7
100
AcDbLine
 10
69.406932
 20
57.800674
 30
0.0
 11
69.406932
 21
57.200674
 31
0.0
  0
LINE
  5
C5
330
1F
100
AcDbEntity
  8
0
  6
CONTINUOUS
 62
     7
100
AcDbLine
 10
44.93543
 20
51.900674
 30
0.0
 11
44.93543
 21
54.500674
 31
0.0
  0
LINE
  5
C6
330
1F
100
AcDbEntity
  8
0
  6
CONTINUOUS
 62
     7
100
AcDbLine
 10
66.435429
 20
58.300674
 30
0.0
 11
66.435429
 21
48.100674
 31
0.0
  0
LINE
  5
C7
330
1F
100
AcDbEntity
  8
0
  6
CONTINUOUS
 62
     7
100
AcDbLine
 10
58.935429
 20
54.877727
 30
0.0
 11
58.935429
 21
58.700674
 31
0.0
  0
LINE
  5
C8
330
1F
100
AcDbEntity
  8
0
  6
CONTINUOUS
 62
     7
100
AcDbLine
 10
58.935429
 20
51.523621
 30
0.0
 11
58.935429
 21
54.877727
 31
0.0
  0
LINE
  5
C9
330
1F
100
AcDbEntity
  8
0
  6
CONTINUOUS
 62
     7
100
AcDbLine
 10
58.935429
 20
47.700674
 30
0.0
 11
58.935429
 21
51.523621
 31
0.0
  0
LINE
  5
CA
330
1F
100
AcDbEntity
  8
0
  6
CONTINUOUS
 62
     7
100
AcDbLine
 10
58.935429
 20
47.450673
 30
0.0
 11
58.935429
 21
47.700674
 31
0.0
  0
LINE
  5
CB
330
1F
100
AcDbEntity
  8
0
  6
CONTINUOUS
 62
     7
100
AcDbLine
 10
58.935429
 20
58.700674
 30
0.0
 11
58.935429
 21
58.950674
 31
0.0
  0
LINE
  5
CC
330
1F
100
AcDbEntity
  8
0
  6
CONTINUOUS
 62
     7
100
AcDbLine
 10
61.93543
 20
47.450673
 30
0.0
 11
61.93543
 21
47.700674
 31
0.0
  0
LINE
  5
CD
330
1F
100
AcDbEntity
  8
0
  6
CONTINUOUS
 62
     7
100
AcDbLine
 10
61.93543
 20
47.700674
 30
0.0
 11
61.93543
 21
51.523621
 31
0.0
  0
LINE
  5
CE
330
1F
100
AcDbEntity
  8
0
  6
CONTINUOUS
 62
     7
100
AcDbLine
 10
61.93543
 20
51.523621
 30
0.0
 11
61.93543
 21
54.877727
 31
0.0
  0
LINE
  5
CF
330
1F
100
AcDbEntity
  8
0
  6
CONTINUOUS
 62
     7
100
AcDbLine
 10
61.93543
 20
54.877727
 30
0.0
 11
61.93543
 21
58.700674
 31
0.0
  0
LINE
  5
D0
330
1F
100
AcDbEntity
  8
0
  6
CONTINUOUS
 62
     7
100
AcDbLine
 10
61.93543
 20
58.700674
 30
0.0
 11
61.93543
 21
58.950674
 31
0.0
  0
LINE
  5
D1
330
1F
100
AcDbEntity
  8
0
  6
CONTINUOUS
 62
     7
100
AcDbLine
 10
61.785832
 20
51.065258
 30
0.0
 11
61.93543
 21
51.523621
 31
0.0
  0
LINE
  5
D2
330
1F
100
AcDbEntity
  8
0
  6
CONTINUOUS
 62
     7
100
AcDbLine
 10
59.085832
 20
51.065258
 30
0.0
 11
61.785832
 21
51.065258
 31
0.0
  0
LINE
  5
D3
330
1F
100
AcDbEntity
  8
0
  6
CONTINUOUS
 62
     7
100
AcDbLine
 10
58.935429
 20
51.523621
 30
0.0
 11
59.085832
 21
51.065258
 31
0.0
  0
LINE
  5
D4
330
1F
100
AcDbEntity
  8
0
  6
CONTINUOUS
 62
     7
100
AcDbLine
 10
59.085832
 20
55.336089
 30
0.0
 11
58.935429
 21
54.877727
 31
0.0
  0
LINE
  5
D5
330
1F
100
AcDbEntity
  8
0
  6
CONTINUOUS
 62
     7
100
AcDbLine
 10
61.785832
 20
55.336089
 30
0.0
 11
59.085832
 21
55.336089
 31
0.0
  0
LINE
  5
D6
330
1F
100
AcDbEntity
  8
0
  6
CONTINUOUS
 62
     7
100
AcDbLine
 10
61.93543
 20
54.877727
 30
0.0
 11
61.785832
 21
55.336089
 31
0.0
  0
LINE
  5
D7
330
1F
100
AcDbEntity
  8
0
  6
CONTINUOUS
 62
     7
100
AcDbLine
 10
61.93543
 20
47.700674
 30
0.0
 11
61.785832
 21
47.700674
 31
0.0
  0
LINE
  5
D8
330
1F
100
AcDbEntity
  8
0
  6
CONTINUOUS
 62
     7
100
AcDbLine
 10
61.785832
 20
47.700674
 30
0.0
 11
61.785832
 21
51.065258
 31
0.0
  0
LINE
  5
D9
330
1F
100
AcDbEntity
  8
0
  6
CONTINUOUS
 62
     7
100
AcDbLine
 10
59.085832
 20
47.700674
 30
0.0
 11
59.085832
 21
51.065258
 31
0.0
  0
LINE
  5
DA
330
1F
100
AcDbEntity
  8
0
  6
CONTINUOUS
 62
     7
100
AcDbLine
 10
59.085832
 20
47.700674
 30
0.0
 11
58.935429
 21
47.700674
 31
0.0
  0
LINE
  5
DB
330
1F
100
AcDbEntity
  8
0
  6
CONTINUOUS
 62
     7
100
AcDbLine
 10
58.935429
 20
58.700674
 30
0.0
 11
59.085832
 21
58.700674
 31
0.0
  0
LINE
  5
DC
330
1F
100
AcDbEntity
  8
0
  6
CONTINUOUS
 62
     7
100
AcDbLine
 10
59.085832
 20
55.336089
 30
0.0
 11
59.085832
 21
58.700674
 31
0.0
  0
LINE
  5
DD
330
1F
100
AcDbEntity
  8
0
  6
CONTINUOUS
 62
     7
100
AcDbLine
 10
61.785832
 20
55.336089
 30
0.0
 11
61.785832
 21
58.700674
 31
0.0
  0
LINE
  5
DE
330
1F
100
AcDbEntity
  8
0
  6
CONTINUOUS
 62
     7
100
AcDbLine
 10
61.785832
 20
58.700674
 30
0.0
 11
61.93543
 21
58.700674
 31
0.0
  0
LINE
  5
DF
330
1F
100
AcDbEntity
  8
0
  6
CONTINUOUS
 62
     7
100
AcDbLine
 10
59.085832
 20
58.700674
 30
0.0
 11
61.785832
 21
58.700674
 31
0.0
  0
LINE
  5
E0
330
1F
100
AcDbEntity
  8
0
  6
CONTINUOUS
 62
     7
100
AcDbLine
 10
61.785832
 20
47.700674
 30
0.0
 11
59.085832
 21
47.700674
 31
0.0
  0
LINE
  5
E1
330
1F
100
AcDbEntity
  8
0
  6
CONTINUOUS
 62
     7
100
AcDbLine
 10
54.935429
 20
53.200674
 30
0.0
 11
54.935429
 21
56.623324
 31
0.0
  0
LINE
  5
E2
330
1F
100
AcDbEntity
  8
0
  6
CONTINUOUS
 62
     7
100
AcDbLine
 10
54.935429
 20
49.778024
 30
0.0
 11
54.935429
 21
53.200674
 31
0.0
  0
LINE
  5
E3
330
1F
100
AcDbEntity
  8
0
  6
CONTINUOUS
 62
     7
100
AcDbLine
 10
149.606928
 20
62.550674
 30
0.0
 11
149.606928
 21
43.850674
 31
0.0
  0
INSERT
  5
E7
330
1F
100
AcDbEntity
  8
0
100
AcDbBlockReference
  2
BLKF011
 10
0.0
 20
0.0
 30
0.0
  0
LINE
  5
116
330
1F
100
AcDbEntity
  8
0
  6
CONTINUOUS
 62
     7
100
AcDbLine
 10
148.372442
 20
62.613806
 30
0.0
 11
148.457393
 21
62.613073
 31
0.0
  0
INSERT
  5
11A
330
1F
100
AcDbEntity
  8
0
100
AcDbBlockReference
  2
BLKF012
 10
0.0
 20
0.0
 30
0.0
  0
INSERT
  5
258
330
1F
100
AcDbEntity
  8
0
100
AcDbBlockReference
  2
BLKF013
 10
0.0
 20
0.0
 30
0.0
  0
LINE
  5
266
330
1F
100
AcDbEntity
  8
0
  6
CONTINUOUS
 62
     7
100
AcDbLine
 10
153.706931
 20
45.050674
 30
0.0
 11
153.706931
 21
61.350674
 31
0.0
  0
LINE
  5
267
330
1F
100
AcDbEntity
  8
0
  6
CONTINUOUS
 62
     7
100
AcDbLine
 10
150.906935
 20
44.750674
 30
0.0
 11
150.906935
 21
61.650674
 31
0.0
  0
LINE
  5
268
330
1F
100
AcDbEntity
  8
0
  6
CONTINUOUS
 62
     7
100
AcDbLine
 10
157.706931
 20
61.150674
 30
0.0
 11
157.706931
 21
45.250673
 31
0.0
  0
INSERT
  5
26C
330
1F
100
AcDbEntity
  8
0
100
AcDbBlockReference
  2
BLKF014
 10
0.0
 20
0.0
 30
0.0
  0
INSERT
  5
27F
330
1F
100
AcDbEntity
  8
0
100
AcDbBlockReference
  2
BLKF015
 10
0.0
 20
0.0
 30
0.0
  0
INSERT
  5
31D
330
1F
100
AcDbEntity
  8
0
100
AcDbBlockReference
  2
BLKF016
 10
0.0
 20
0.0
 30
0.0
  0
INSERT
  5
32B
330
1F
100
AcDbEntity
  8
0
100
AcDbBlockReference
  2
BLKF017
 10
0.0
 20
0.0
 30
0.0
  0
LINE
  5
396
330
1F
100
AcDbEntity
  8
0
  6
CONTINUOUS
 62
     7
100
AcDbLine
 10
69.506932
 20
43.950674
 30
0.0
 11
69.506932
 21
62.450674
 31
0.0
  0
LINE
  5
397
330
1F
100
AcDbEntity
  8
0
  6
CONTINUOUS
 62
     7
100
AcDbLine
 10
71.706932
 20
53.200674
 30
0.0
 11
71.706932
 21
43.850674
 31
0.0
  0
LINE
  5
398
330
1F
100
AcDbEntity
  8
0
  6
CONTINUOUS
 62
     7
100
AcDbLine
 10
71.706932
 20
62.550674
 30
0.0
 11
71.706932
 21
53.200674
 31
0.0
  0
LINE
  5
399
330
1F
100
AcDbEntity
  8
0
  6
CONTINUOUS
 62
     8
100
AcDbLine
 10
58.494275
 20
59.100674
 30
0.0
 11
58.494275
 21
47.300674
 31
0.0
  0
LINE
  5
39A
330
1F
100
AcDbEntity
  8
0
  6
CONTINUOUS
 62
     8
100
AcDbLine
 10
65.635429
 20
47.300674
 30
0.0
 11
65.635429
 21
59.100674
 31
0.0
  0
LINE
  5
39B
330
1F
100
AcDbEntity
  8
0
  6
CONTINUOUS
 62
     8
100
AcDbLine
 10
57.994274
 20
53.200674
 30
0.0
 11
57.994274
 21
58.966699
 31
0.0
  0
LINE
  5
39C
330
1F
100
AcDbEntity
  8
0
  6
CONTINUOUS
 62
     8
100
AcDbLine
 10
57.994274
 20
47.434649
 30
0.0
 11
57.994274
 21
53.200674
 31
0.0
  0
LINE
  5
39D
330
1F
100
AcDbEntity
  8
0
  6
CONTINUOUS
 62
     8
100
AcDbLine
 10
55.435428
 20
53.200674
 30
0.0
 11
55.435428
 21
48.911999
 31
0.0
  0
LINE
  5
39E
330
1F
100
AcDbEntity
  8
0
  6
CONTINUOUS
 62
     8
100
AcDbLine
 10
55.435428
 20
57.489349
 30
0.0
 11
55.435428
 21
53.200674
 31
0.0
  0
LINE
  5
39F
330
1F
100
AcDbEntity
  8
CSLAYER2
  6
CONTINUOUS
 62
     3
100
AcDbLine
 10
43.022956
 20
53.200674
 30
0.0
 11
160.351016
 21
53.200674
 31
0.0
  0
INSERT
  5
3A3
330
1F
100
AcDbEntity
  8
0
100
AcDbBlockReference
  2
BLKF018
 10
0.0
 20
0.0
 30
0.0
  0
INSERT
  5
3B1
330
1F
100
AcDbEntity
  8
0
100
AcDbBlockReference
  2
BLKF019
 10
0.0
 20
0.0
 30
0.0
  0
INSERT
  5
3BF
330
1F
100
AcDbEntity
  8
0
100
AcDbBlockReference
  2
BLKF020
 10
0.0
 20
0.0
 30
0.0
  0
INSERT
  5
3CD
330
1F
100
AcDbEntity
  8
0
100
AcDbBlockReference
  2
BLKF021
 10
0.0
 20
0.0
 30
0.0
  0
INSERT
  5
3DE
330
1F
100
AcDbEntity
  8
0
100
AcDbBlockReference
  2
BLKF022
 10
0.0
 20
0.0
 30
0.0
  0
INSERT
  5
3F2
330
1F
100
AcDbEntity
  8
0
100
AcDbBlockReference
  2
BLKF023
 10
0.0
 20
0.0
 30
0.0
  0
INSERT
  5
402
330
1F
100
AcDbEntity
  8
0
100
AcDbBlockReference
  2
BLKF024
 10
0.0
 20
0.0
 30
0.0
  0
ENDSEC
  0
SECTION
  2
OBJECTS
  0
DICTIONARY
  5
C
330
0
100
AcDbDictionary
  3
ACAD_GROUP
350
D
  3
ACAD_LAYOUT
350
1A
  3
ACAD_MLINESTYLE
350
17
  3
ACAD_PLOTSETTINGS
350
19
1001
ACAD
1000
TREAT_AS_HARD
1070
     0
  0
DICTIONARY
  5
D
102
{ACAD_REACTORS
330
C
102
}
330
C
100
AcDbDictionary
1001
ACAD
1000
TREAT_AS_HARD
1070
     0
  0
DICTIONARY
  5
1A
102
{ACAD_REACTORS
330
C
102
}
330
C
100
AcDbDictionary
1001
ACAD
1000
TREAT_AS_HARD
1070
     0
  0
DICTIONARY
  5
17
102
{ACAD_REACTORS
330
C
102
}
330
C
100
AcDbDictionary
  3
STANDARD
350
18
1001
ACAD
1000
TREAT_AS_HARD
1070
     0
  0
DICTIONARY
  5
19
102
{ACAD_REACTORS
330
C
102
}
330
C
100
AcDbDictionary
1001
ACAD
1000
TREAT_AS_HARD
1070
     0
  0
MLINESTYLE
  5
18
102
{ACAD_REACTORS
330
17
102
}
330
17
100
AcDbMlineStyle
  2
Standard
 70
     0
  3

 62
   256
 51
90.0
 52
90.0
 71
     2
 49
0.5
 62
   256
  6
BYLAYER
 49
-0.5
 62
   256
  6
BYLAYER
  0
ENDSEC
  0
EOF
