  0
SECTION
  2
HEADER
  9
$ACADVER
  1
AC1012
  9
$DWGCODEPAGE
  3
ansi_932
  9
$INSBASE
 10
0.0
 20
0.0
 30
0.0
  9
$EXTMIN
 10
0.0
 20
0.0
 30
0.0
  9
$EXTMAX
 10
295.284971
 20
75.25
 30
0.0
  9
$LIMMIN
 10
0.0
 20
0.0
  9
$LIMMAX
 10
295.284971
 20
75.25
  9
$ORTHOMODE
 70
     0
  9
$REGENMODE
 70
     1
  9
$FILLMODE
 70
     1
  9
$QTEXTMODE
 70
     0
  9
$MIRRTEXT
 70
     1
  9
$DRAGMODE
 70
     2
  9
$LTSCALE
 40
1.0
  9
$OSMODE
 70
    37
  9
$ATTMODE
 70
     1
  9
$TEXTSIZE
 40
0.2
  9
$TRACEWID
 40
0.05
  9
$TEXTSTYLE
  7
ED_VECTOR
  9
$CLAYER
  8
0
  9
$CELTYPE
  6
BYLAYER
  9
$CECOLOR
 62
   256
  9
$CELTSCALE
 40
1.0
  9
$DELOBJ
 70
     1
  9
$DISPSILH
 70
     0
  9
$DIMSCALE
 40
1.0
  9
$DIMASZ
 40
3.0
  9
$DIMEXO
 40
1.0
  9
$DIMDLI
 40
10.0
  9
$DIMRND
 40
0.0
  9
$DIMDLE
 40
5.0
  9
$DIMEXE
 40
1.0
  9
$DIMTP
 40
0.0
  9
$DIMTM
 40
0.0
  9
$DIMTXT
 40
4.0
  9
$DIMCEN
 40
2.5
  9
$DIMTSZ
 40
0.0
  9
$DIMTOL
 70
     0
  9
$DIMLIM
 70
     0
  9
$DIMTIH
 70
     0
  9
$DIMTOH
 70
     0
  9
$DIMSE1
 70
     0
  9
$DIMSE2
 70
     0
  9
$DIMTAD
 70
     1
  9
$DIMZIN
 70
     8
  9
$DIMBLK
  1

  9
$DIMASO
 70
     1
  9
$DIMSHO
 70
     1
  9
$DIMPOST
  1

  9
$DIMAPOST
  1

  9
$DIMALT
 70
     0
  9
$DIMALTD
 70
     3
  9
$DIMALTF
 40
0.03937
  9
$DIMLFAC
 40
1.0
  9
$DIMTOFL
 70
     1
  9
$DIMTVP
 40
0.0
  9
$DIMTIX
 70
     0
  9
$DIMSOXD
 70
     0
  9
$DIMSAH
 70
     1
  9
$DIMBLK1
  1
EDTIP_ARROW_S
  9
$DIMBLK2
  1
EDTIP_ARROW_E
  9
$DIMSTYLE
  2
EDDIMINFO
  9
$DIMCLRD
 70
     7
  9
$DIMCLRE
 70
     7
  9
$DIMCLRT
 70
     7
  9
$DIMTFAC
 40
1.0
  9
$DIMGAP
 40
1.0
  9
$DIMJUST
 70
     0
  9
$DIMSD1
 70
     0
  9
$DIMSD2
 70
     0
  9
$DIMTOLJ
 70
     0
  9
$DIMTZIN
 70
     8
  9
$DIMALTZ
 70
     0
  9
$DIMALTTZ
 70
     0
  9
$DIMFIT
 70
     3
  9
$DIMUPT
 70
     0
  9
$DIMUNIT
 70
     2
  9
$DIMDEC
 70
     2
  9
$DIMTDEC
 70
     2
  9
$DIMALTU
 70
     2
  9
$DIMALTTD
 70
     3
  9
$DIMTXSTY
  7
ED_VECTOR
  9
$DIMAUNIT
 70
     0
  9
$LUNITS
 70
     2
  9
$LUPREC
 70
     4
  9
$SKETCHINC
 40
0.1
  9
$FILLETRAD
 40
0.5
  9
$AUNITS
 70
     0
  9
$AUPREC
 70
     0
  9
$MENU
  1
.
  9
$ELEVATION
 40
0.0
  9
$PELEVATION
 40
0.0
  9
$THICKNESS
 40
0.0
  9
$LIMCHECK
 70
     0
  9
$CHAMFERA
 40
0.5
  9
$CHAMFERB
 40
0.5
  9
$CHAMFERC
 40
1.0
  9
$CHAMFERD
 40
0.0
  9
$SKPOLY
 70
     0
  9
$TDCREATE
 40
2456058.76755625
  9
$TDUPDATE
 40
2456058.767556262
  9
$TDINDWG
 40
0.0000000116
  9
$TDUSRTIMER
 40
0.0000000116
  9
$USRTIMER
 70
     1
  9
$ANGBASE
 50
0.0
  9
$ANGDIR
 70
     0
  9
$PDMODE
 70
     0
  9
$PDSIZE
 40
0.0
  9
$PLINEWID
 40
0.0
  9
$COORDS
 70
     1
  9
$SPLFRAME
 70
     0
  9
$SPLINETYPE
 70
     6
  9
$SPLINESEGS
 70
     8
  9
$ATTDIA
 70
     0
  9
$ATTREQ
 70
     1
  9
$HANDLING
 70
     1
  9
$HANDSEED
  5
3F1
  9
$SURFTAB1
 70
     6
  9
$SURFTAB2
 70
     6
  9
$SURFTYPE
 70
     6
  9
$SURFU
 70
     6
  9
$SURFV
 70
     6
  9
$UCSNAME
  2

  9
$UCSORG
 10
0.0
 20
0.0
 30
0.0
  9
$UCSXDIR
 10
1.0
 20
0.0
 30
0.0
  9
$UCSYDIR
 10
0.0
 20
1.0
 30
0.0
  9
$PUCSNAME
  2

  9
$PUCSORG
 10
0.0
 20
0.0
 30
0.0
  9
$PUCSXDIR
 10
1.0
 20
0.0
 30
0.0
  9
$PUCSYDIR
 10
0.0
 20
1.0
 30
0.0
  9
$USERI1
 70
     0
  9
$USERI2
 70
     0
  9
$USERI3
 70
     0
  9
$USERI4
 70
     0
  9
$USERI5
 70
     0
  9
$USERR1
 40
0.0
  9
$USERR2
 40
0.0
  9
$USERR3
 40
0.0
  9
$USERR4
 40
0.0
  9
$USERR5
 40
0.0
  9
$WORLDVIEW
 70
     1
  9
$SHADEDGE
 70
     3
  9
$SHADEDIF
 70
    70
  9
$TILEMODE
 70
     1
  9
$MAXACTVP
 70
    64
  9
$PINSBASE
 10
0.0
 20
0.0
 30
0.0
  9
$PLIMCHECK
 70
     0
  9
$PEXTMIN
 10
1.000000E+20
 20
1.000000E+20
 30
1.000000E+20
  9
$PEXTMAX
 10
-1.000000E+20
 20
-1.000000E+20
 30
-1.000000E+20
  9
$PLIMMIN
 10
0.0
 20
0.0
  9
$PLIMMAX
 10
12.0
 20
9.0
  9
$UNITMODE
 70
     0
  9
$VISRETAIN
 70
     1
  9
$PLINEGEN
 70
     0
  9
$PSLTSCALE
 70
     1
  9
$TREEDEPTH
 70
  3020
  9
$PICKSTYLE
 70
     1
  9
$CMLSTYLE
  2
STANDARD
  9
$CMLJUST
 70
     0
  9
$CMLSCALE
 40
1.0
  9
$SAVEIMAGES
 70
     1
  0
ENDSEC
  0
SECTION
  2
CLASSES
  0
CLASS
  1
ACDBDICTIONARYWDFLT
  2
AcDbDictionaryWithDefault
  3
ObjectDBX Classes
 90
    32768
280
     0
281
     0
  0
CLASS
  1
XRECORD
  2
AcDbXrecord
  3
AutoCAD 2000
 90
    32768
280
     0
281
     0
  0
CLASS
  1
LWPOLYLINE
  2
AcDbPolyline
  3
AutoCAD 2000
 90
    32768
280
     0
281
     1
  0
CLASS
  1
HATCH
  2
AcDbHatch
  3
AutoCAD 2000
 90
    32768
280
     0
281
     1
  0
CLASS
  1
ACDBPLACEHOLDER
  2
AcDbPlaceHolder
  3
ObjectDBX Classes
 90
        0
280
     0
281
     0
  0
CLASS
  1
LAYOUT
  2
AcDbLayout
  3
ObjectDBX Classes
 90
        0
280
     0
281
     0
  0
ENDSEC
  0
SECTION
  2
TABLES
  0
TABLE
  2
VPORT
  5
8
330
0
100
AcDbSymbolTable
 70
     1
  0
VPORT
  5
29
330
8
100
AcDbSymbolTableRecord
100
AcDbViewportTableRecord
  2
*ACTIVE
 70
     0
 10
0.0
 20
0.0
 11
1.0
 21
1.0
 12
147.642486
 22
37.625
 13
0.0
 23
0.0
 14
0.5
 24
0.5
 15
0.5
 25
0.5
 16
0.0
 26
0.0
 36
1.0
 17
0.0
 27
0.0
 37
0.0
 40
75.25
 41
3.924053
 42
50.0
 43
0.0
 44
0.0
 50
0.0
 51
0.0
 71
     0
 72
   100
 73
     1
 74
     3
 75
     0
 76
     0
 77
     0
 78
     0
  0
ENDTAB
  0
TABLE
  2
LTYPE
  5
5
330
0
100
AcDbSymbolTable
 70
     5
  0
LTYPE
  5
14
330
5
100
AcDbSymbolTableRecord
100
AcDbLinetypeTableRecord
  2
BYBLOCK
 70
     0
  3

 72
    65
 73
     0
 40
0.0
  0
LTYPE
  5
15
330
5
100
AcDbSymbolTableRecord
100
AcDbLinetypeTableRecord
  2
BYLAYER
 70
     0
  3

 72
    65
 73
     0
 40
0.0
  0
LTYPE
  5
16
330
5
100
AcDbSymbolTableRecord
100
AcDbLinetypeTableRecord
  2
CONTINUOUS
 70
     0
  3
--------------------
 72
    65
 73
     0
 40
0.0
  0
LTYPE
  5
2A
330
5
100
AcDbSymbolTableRecord
100
AcDbLinetypeTableRecord
  2
DASHED
 70
     0
  3
- - - - - - - - - - -
 72
    65
 73
     2
 40
19.1
 49
12.7
 74
     0
 49
-6.4
 74
     0
  0
LTYPE
  5
2B
330
5
100
AcDbSymbolTableRecord
100
AcDbLinetypeTableRecord
  2
CENTER
 70
     0
  3
- ･ - ･ - ･ - ･ - ･ - ･ - ･ - ･ - ･ - ･ -
 72
    65
 73
     4
 40
51.0
 49
31.8
 74
     0
 49
-6.4
 74
     0
 49
6.4
 74
     0
 49
-6.4
 74
     0
  0
LTYPE
  5
2C
330
5
100
AcDbSymbolTableRecord
100
AcDbLinetypeTableRecord
  2
PHANTOM
 70
     0
  3
- ･ ･ - ･ ･ - ･ ･ - ･ ･ - ･ ･ - ･ ･ - ･ ･ - 
 72
    65
 73
     6
 40
63.8
 49
31.8
 74
     0
 49
-6.4
 74
     0
 49
6.4
 74
     0
 49
-6.4
 74
     0
 49
6.4
 74
     0
 49
-6.4
 74
     0
  0
LTYPE
  5
2D
330
5
100
AcDbSymbolTableRecord
100
AcDbLinetypeTableRecord
  2
DOT
 70
     0
  3
・・・・・・・・・・・・・・・
 72
    65
 73
     2
 40
6.5
 49
0.1
 74
     0
 49
-6.4
 74
     0
  0
ENDTAB
  0
TABLE
  2
LAYER
  5
2
330
0
100
AcDbSymbolTable
 70
    16
  0
LAYER
  5
10
330
2
100
AcDbSymbolTableRecord
100
AcDbLayerTableRecord
  2
0
 70
     0
 62
     7
  6
CONTINUOUS
  0
LAYER
  5
2E
330
2
100
AcDbSymbolTableRecord
100
AcDbLayerTableRecord
  2
CSLAYER2
 70
     0
 62
     7
  6
CONTINUOUS
  0
ENDTAB
  0
TABLE
  2
STYLE
  5
3
330
0
100
AcDbSymbolTable
 70
     2
  0
STYLE
  5
11
330
3
100
AcDbSymbolTableRecord
100
AcDbTextStyleTableRecord
  2
STANDARD
 70
     0
 40
0.0
 41
1.0
 50
0.0
 71
     0
 42
0.2
  3
txt
  4

  0
STYLE
  5
3D
330
3
100
AcDbSymbolTableRecord
100
AcDbTextStyleTableRecord
  2
ED_VECTOR
 70
     0
 40
0.0
 41
1.0
 50
0.0
 71
     0
 42
0.2
  3
MONOTXT.SHX
  4
BIGFONT.SHX
  0
ENDTAB
  0
TABLE
  2
VIEW
  5
6
330
0
100
AcDbSymbolTable
 70
     0
  0
ENDTAB
  0
TABLE
  2
UCS
  5
7
330
0
100
AcDbSymbolTable
 70
     0
  0
ENDTAB
  0
TABLE
  2
APPID
  5
9
330
0
100
AcDbSymbolTable
 70
     1
  0
APPID
  5
12
330
9
100
AcDbSymbolTableRecord
100
AcDbRegAppTableRecord
  2
ACAD
 70
     0
  0
ENDTAB
  0
TABLE
  2
DIMSTYLE
  5
A
330
0
100
AcDbSymbolTable
 70
     2
  0
DIMSTYLE
105
27
330
A
100
AcDbSymbolTableRecord
100
AcDbDimStyleTableRecord
  2
STANDARD
 70
     0
  3

  4

  5

  6

  7

 40
1.0
 41
0.18
 42
0.0625
 43
0.38
 44
0.18
 45
0.0
 46
0.0
 47
0.0
 48
0.0
140
0.18
141
0.09
142
0.0
143
25.4
144
1.0
145
0.0
146
1.0
147
0.09
 71
     0
 72
     0
 73
     1
 74
     1
 75
     0
 76
     0
 77
     0
 78
     0
170
     0
171
     2
172
     0
173
     0
174
     0
175
     0
176
     0
177
     0
178
     0
270
     2
271
     4
272
     4
273
     2
274
     2
340
11
275
     0
280
     0
281
     0
282
     0
283
     1
284
     0
285
     0
286
     0
287
     3
288
     0
  0
DIMSTYLE
105
6E
330
A
100
AcDbSymbolTableRecord
100
AcDbDimStyleTableRecord
  2
EDDIMINFO
 70
     0
  3

  4

  5

  6
EDTIP_ARROW_S
  7
EDTIP_ARROW_E
 40
1.0
 41
3.0
 42
1.0
 43
10.0
 44
1.0
 45
0.0
 46
5.0
 47
0.0
 48
0.0
140
4.0
141
2.5
142
0.0
143
0.03937
144
1.0
145
0.0
146
1.0
147
1.0
 71
     0
 72
     0
 73
     0
 74
     0
 75
     0
 76
     0
 77
     1
 78
     8
170
     0
171
     3
172
     1
173
     1
174
     0
175
     0
176
     7
177
     7
178
     7
179
     2
270
     2
271
     2
272
     2
273
     2
274
     3
340
3D
275
     0
280
     0
281
     0
282
     0
283
     0
284
     8
285
     0
286
     0
287
     3
288
     0
  0
ENDTAB
  0
TABLE
  2
BLOCK_RECORD
  5
1
330
0
100
AcDbSymbolTable
 70
    23
  0
BLOCK_RECORD
  5
1F
330
1
100
AcDbSymbolTableRecord
100
AcDbBlockTableRecord
  2
*MODEL_SPACE
  0
BLOCK_RECORD
  5
1B
330
1
100
AcDbSymbolTableRecord
100
AcDbBlockTableRecord
  2
*PAPER_SPACE
  0
BLOCK_RECORD
  5
3E
330
1
100
AcDbSymbolTableRecord
100
AcDbBlockTableRecord
  2
EDTIP_ARROW_S
  0
BLOCK_RECORD
  5
44
330
1
100
AcDbSymbolTableRecord
100
AcDbBlockTableRecord
  2
EDTIP_ARROW_E
  0
BLOCK_RECORD
  5
4A
330
1
100
AcDbSymbolTableRecord
100
AcDbBlockTableRecord
  2
EDTIP_BLACKDOT_S
  0
BLOCK_RECORD
  5
50
330
1
100
AcDbSymbolTableRecord
100
AcDbBlockTableRecord
  2
EDTIP_BLACKDOT_E
  0
BLOCK_RECORD
  5
56
330
1
100
AcDbSymbolTableRecord
100
AcDbBlockTableRecord
  2
EDTIP_ARCHITECT_S
  0
BLOCK_RECORD
  5
5C
330
1
100
AcDbSymbolTableRecord
100
AcDbBlockTableRecord
  2
EDTIP_ARCHITECT_E
  0
BLOCK_RECORD
  5
62
330
1
100
AcDbSymbolTableRecord
100
AcDbBlockTableRecord
  2
EDTIP_CIVIL_S
  0
BLOCK_RECORD
  5
68
330
1
100
AcDbSymbolTableRecord
100
AcDbBlockTableRecord
  2
EDTIP_CIVIL_E
  0
BLOCK_RECORD
  5
6F
330
1
100
AcDbSymbolTableRecord
100
AcDbBlockTableRecord
  2
BLKF011
  0
BLOCK_RECORD
  5
194
330
1
100
AcDbSymbolTableRecord
100
AcDbBlockTableRecord
  2
BLKF012
  0
BLOCK_RECORD
  5
1A7
330
1
100
AcDbSymbolTableRecord
100
AcDbBlockTableRecord
  2
BLKF013
  0
BLOCK_RECORD
  5
1F8
330
1
100
AcDbSymbolTableRecord
100
AcDbBlockTableRecord
  2
BLKF014
  0
BLOCK_RECORD
  5
21E
330
1
100
AcDbSymbolTableRecord
100
AcDbBlockTableRecord
  2
BLKF015
  0
BLOCK_RECORD
  5
26B
330
1
100
AcDbSymbolTableRecord
100
AcDbBlockTableRecord
  2
BLKF016
  0
BLOCK_RECORD
  5
2B3
330
1
100
AcDbSymbolTableRecord
100
AcDbBlockTableRecord
  2
BLKF017
  0
BLOCK_RECORD
  5
2D2
330
1
100
AcDbSymbolTableRecord
100
AcDbBlockTableRecord
  2
BLKF018
  0
BLOCK_RECORD
  5
2FC
330
1
100
AcDbSymbolTableRecord
100
AcDbBlockTableRecord
  2
BLKF019
  0
BLOCK_RECORD
  5
328
330
1
100
AcDbSymbolTableRecord
100
AcDbBlockTableRecord
  2
BLKF020
  0
BLOCK_RECORD
  5
375
330
1
100
AcDbSymbolTableRecord
100
AcDbBlockTableRecord
  2
BLKF021
  0
BLOCK_RECORD
  5
3C2
330
1
100
AcDbSymbolTableRecord
100
AcDbBlockTableRecord
  2
BLKF022
  0
BLOCK_RECORD
  5
3D0
330
1
100
AcDbSymbolTableRecord
100
AcDbBlockTableRecord
  2
BLKF023
  0
BLOCK_RECORD
  5
3DE
330
1
100
AcDbSymbolTableRecord
100
AcDbBlockTableRecord
  2
BLKF024
  0
ENDTAB
  0
ENDSEC
  0
SECTION
  2
BLOCKS
  0
BLOCK
  5
20
330
1F
100
AcDbEntity
  8
0
100
AcDbBlockBegin
  2
*MODEL_SPACE
 70
     0
 71
     0
 10
0.0
 20
0.0
 30
0.0
  3
*MODEL_SPACE
  1

  0
ENDBLK
  5
21
330
1F
100
AcDbEntity
  8
0
100
AcDbBlockEnd
  0
BLOCK
  5
1C
330
1B
100
AcDbEntity
 67
     1
  8
0
100
AcDbBlockBegin
  2
*PAPER_SPACE
 70
     0
 71
     0
 10
0.0
 20
0.0
 30
0.0
  3
*PAPER_SPACE
  1

  0
ENDBLK
  5
1D
330
1B
100
AcDbEntity
 67
     1
  8
0
100
AcDbBlockEnd
  0
BLOCK
  5
3F
330
3E
100
AcDbEntity
  8
0
100
AcDbBlockBegin
  2
EDTIP_ARROW_S
 70
     0
 71
     0
 10
0.0
 20
0.0
 30
0.0
  3
EDTIP_ARROW_S
  1

  0
LINE
  5
41
330
3E
100
AcDbEntity
  8
0
  6
CONTINUOUS
 62
     0
100
AcDbLine
 10
0.0
 20
0.0
 30
0.0
 11
-1.0
 21
0.0
 31
0.0
  0
LINE
  5
42
330
3E
100
AcDbEntity
  8
0
  6
CONTINUOUS
 62
     0
100
AcDbLine
 10
0.0
 20
0.0
 30
0.0
 11
-0.965926
 21
0.258819
 31
0.0
  0
LINE
  5
43
330
3E
100
AcDbEntity
  8
0
  6
CONTINUOUS
 62
     0
100
AcDbLine
 10
0.0
 20
0.0
 30
0.0
 11
-0.965926
 21
-0.258819
 31
0.0
  0
ENDBLK
  5
40
330
3E
100
AcDbEntity
  8
0
100
AcDbBlockEnd
  0
BLOCK
  5
45
330
44
100
AcDbEntity
  8
0
100
AcDbBlockBegin
  2
EDTIP_ARROW_E
 70
     0
 71
     0
 10
0.0
 20
0.0
 30
0.0
  3
EDTIP_ARROW_E
  1

  0
LINE
  5
47
330
44
100
AcDbEntity
  8
0
  6
CONTINUOUS
 62
     0
100
AcDbLine
 10
0.0
 20
0.0
 30
0.0
 11
-1.0
 21
0.0
 31
0.0
  0
LINE
  5
48
330
44
100
AcDbEntity
  8
0
  6
CONTINUOUS
 62
     0
100
AcDbLine
 10
0.0
 20
0.0
 30
0.0
 11
-0.965926
 21
-0.258819
 31
0.0
  0
LINE
  5
49
330
44
100
AcDbEntity
  8
0
  6
CONTINUOUS
 62
     0
100
AcDbLine
 10
0.0
 20
0.0
 30
0.0
 11
-0.965926
 21
0.258819
 31
0.0
  0
ENDBLK
  5
46
330
44
100
AcDbEntity
  8
0
100
AcDbBlockEnd
  0
BLOCK
  5
4B
330
4A
100
AcDbEntity
  8
0
100
AcDbBlockBegin
  2
EDTIP_BLACKDOT_S
 70
     0
 71
     0
 10
0.0
 20
0.0
 30
0.0
  3
EDTIP_BLACKDOT_S
  1

  0
LINE
  5
4D
330
4A
100
AcDbEntity
  8
0
  6
CONTINUOUS
 62
     0
100
AcDbLine
 10
0.0
 20
0.0
 30
0.0
 11
-1.0
 21
0.0
 31
0.0
  0
CIRCLE
  5
4E
330
4A
100
AcDbEntity
  8
0
  6
CONTINUOUS
 62
     0
100
AcDbCircle
 10
0.0
 20
0.0
 30
0.0
 40
0.5
  0
CIRCLE
  5
4F
330
4A
100
AcDbEntity
  8
0
  6
CONTINUOUS
 62
     0
100
AcDbCircle
 10
0.0
 20
0.0
 30
0.0
 40
0.25
  0
ENDBLK
  5
4C
330
4A
100
AcDbEntity
  8
0
100
AcDbBlockEnd
  0
BLOCK
  5
51
330
50
100
AcDbEntity
  8
0
100
AcDbBlockBegin
  2
EDTIP_BLACKDOT_E
 70
     0
 71
     0
 10
0.0
 20
0.0
 30
0.0
  3
EDTIP_BLACKDOT_E
  1

  0
LINE
  5
53
330
50
100
AcDbEntity
  8
0
  6
CONTINUOUS
 62
     0
100
AcDbLine
 10
0.0
 20
0.0
 30
0.0
 11
-1.0
 21
0.0
 31
0.0
  0
CIRCLE
  5
54
330
50
100
AcDbEntity
  8
0
  6
CONTINUOUS
 62
     0
100
AcDbCircle
 10
0.0
 20
0.0
 30
0.0
 40
0.5
  0
CIRCLE
  5
55
330
50
100
AcDbEntity
  8
0
  6
CONTINUOUS
 62
     0
100
AcDbCircle
 10
0.0
 20
0.0
 30
0.0
 40
0.25
  0
ENDBLK
  5
52
330
50
100
AcDbEntity
  8
0
100
AcDbBlockEnd
  0
BLOCK
  5
57
330
56
100
AcDbEntity
  8
0
100
AcDbBlockBegin
  2
EDTIP_ARCHITECT_S
 70
     0
 71
     0
 10
0.0
 20
0.0
 30
0.0
  3
EDTIP_ARCHITECT_S
  1

  0
LINE
  5
59
330
56
100
AcDbEntity
  8
0
  6
CONTINUOUS
 62
     0
100
AcDbLine
 10
0.0
 20
0.0
 30
0.0
 11
-1.0
 21
0.0
 31
0.0
  0
LINE
  5
5A
330
56
100
AcDbEntity
  8
0
  6
CONTINUOUS
 62
     0
100
AcDbLine
 10
0.0
 20
0.0
 30
0.0
 11
-0.707107
 21
-0.707107
 31
0.0
  0
LINE
  5
5B
330
56
100
AcDbEntity
  8
0
  6
CONTINUOUS
 62
     0
100
AcDbLine
 10
0.0
 20
0.0
 30
0.0
 11
0.707107
 21
0.707107
 31
0.0
  0
ENDBLK
  5
58
330
56
100
AcDbEntity
  8
0
100
AcDbBlockEnd
  0
BLOCK
  5
5D
330
5C
100
AcDbEntity
  8
0
100
AcDbBlockBegin
  2
EDTIP_ARCHITECT_E
 70
     0
 71
     0
 10
0.0
 20
0.0
 30
0.0
  3
EDTIP_ARCHITECT_E
  1

  0
LINE
  5
5F
330
5C
100
AcDbEntity
  8
0
  6
CONTINUOUS
 62
     0
100
AcDbLine
 10
0.0
 20
0.0
 30
0.0
 11
-1.0
 21
0.0
 31
0.0
  0
LINE
  5
60
330
5C
100
AcDbEntity
  8
0
  6
CONTINUOUS
 62
     0
100
AcDbLine
 10
0.0
 20
0.0
 30
0.0
 11
-0.707107
 21
-0.707107
 31
0.0
  0
LINE
  5
61
330
5C
100
AcDbEntity
  8
0
  6
CONTINUOUS
 62
     0
100
AcDbLine
 10
0.0
 20
0.0
 30
0.0
 11
0.707107
 21
0.707107
 31
0.0
  0
ENDBLK
  5
5E
330
5C
100
AcDbEntity
  8
0
100
AcDbBlockEnd
  0
BLOCK
  5
63
330
62
100
AcDbEntity
  8
0
100
AcDbBlockBegin
  2
EDTIP_CIVIL_S
 70
     0
 71
     0
 10
0.0
 20
0.0
 30
0.0
  3
EDTIP_CIVIL_S
  1

  0
LINE
  5
65
330
62
100
AcDbEntity
  8
0
  6
CONTINUOUS
 62
     0
100
AcDbLine
 10
0.0
 20
0.0
 30
0.0
 11
-1.0
 21
0.0
 31
0.0
  0
LINE
  5
66
330
62
100
AcDbEntity
  8
0
  6
CONTINUOUS
 62
     0
100
AcDbLine
 10
0.0
 20
-0.083333
 30
0.0
 11
-1.0
 21
-0.083333
 31
0.0
  0
LINE
  5
67
330
62
100
AcDbEntity
  8
0
  6
CONTINUOUS
 62
     0
100
AcDbLine
 10
0.0
 20
-0.166667
 30
0.0
 11
-1.0
 21
-0.166667
 31
0.0
  0
ENDBLK
  5
64
330
62
100
AcDbEntity
  8
0
100
AcDbBlockEnd
  0
BLOCK
  5
69
330
68
100
AcDbEntity
  8
0
100
AcDbBlockBegin
  2
EDTIP_CIVIL_E
 70
     0
 71
     0
 10
0.0
 20
0.0
 30
0.0
  3
EDTIP_CIVIL_E
  1

  0
LINE
  5
6B
330
68
100
AcDbEntity
  8
0
  6
CONTINUOUS
 62
     0
100
AcDbLine
 10
0.0
 20
0.0
 30
0.0
 11
-1.0
 21
0.0
 31
0.0
  0
LINE
  5
6C
330
68
100
AcDbEntity
  8
0
  6
CONTINUOUS
 62
     0
100
AcDbLine
 10
0.0
 20
0.083333
 30
0.0
 11
-1.0
 21
0.083333
 31
0.0
  0
LINE
  5
6D
330
68
100
AcDbEntity
  8
0
  6
CONTINUOUS
 62
     0
100
AcDbLine
 10
0.0
 20
0.166667
 30
0.0
 11
-1.0
 21
0.166667
 31
0.0
  0
ENDBLK
  5
6A
330
68
100
AcDbEntity
  8
0
100
AcDbBlockEnd
  0
BLOCK
  5
70
330
6F
100
AcDbEntity
  8
0
100
AcDbBlockBegin
  2
BLKF011
 70
     0
 71
     0
 10
0.0
 20
0.0
 30
0.0
  3
BLKF011
  1

  0
LINE
  5
73
330
6F
100
AcDbEntity
  8
0
  6
CONTINUOUS
 62
     7
100
AcDbLine
 10
34.28892
 20
54.85
 30
0.0
 11
34.488923
 21
55.05
 31
0.0
  0
LINE
  5
74
330
6F
100
AcDbEntity
  8
0
  6
CONTINUOUS
 62
     7
100
AcDbLine
 10
34.488923
 20
55.05
 30
0.0
 11
51.088921
 21
55.05
 31
0.0
  0
LINE
  5
75
330
6F
100
AcDbEntity
  8
0
  6
CONTINUOUS
 62
     7
100
AcDbLine
 10
51.088921
 20
55.05
 30
0.0
 11
51.28891
 21
54.85
 31
0.0
  0
LINE
  5
76
330
6F
100
AcDbEntity
  8
0
  6
CONTINUOUS
 62
     7
100
AcDbLine
 10
51.28891
 20
54.85
 30
0.0
 11
51.28891
 21
36.45
 31
0.0
  0
LINE
  5
77
330
6F
100
AcDbEntity
  8
0
  6
CONTINUOUS
 62
     7
100
AcDbLine
 10
51.28891
 20
36.45
 30
0.0
 11
51.088921
 21
36.25
 31
0.0
  0
LINE
  5
78
330
6F
100
AcDbEntity
  8
0
  6
CONTINUOUS
 62
     7
100
AcDbLine
 10
51.088921
 20
36.25
 30
0.0
 11
34.488923
 21
36.25
 31
0.0
  0
LINE
  5
79
330
6F
100
AcDbEntity
  8
0
  6
CONTINUOUS
 62
     7
100
AcDbLine
 10
34.488923
 20
36.25
 30
0.0
 11
34.28892
 21
36.45
 31
0.0
  0
LINE
  5
7A
330
6F
100
AcDbEntity
  8
0
  6
CONTINUOUS
 62
     7
100
AcDbLine
 10
34.28892
 20
36.45
 30
0.0
 11
34.28892
 21
54.85
 31
0.0
  0
LINE
  5
7B
330
6F
100
AcDbEntity
  8
0
  6
CONTINUOUS
 62
     7
100
AcDbLine
 10
34.28892
 20
54.215571
 30
0.0
 11
35.12334
 21
55.05
 31
0.0
  0
LINE
  5
7C
330
6F
100
AcDbEntity
  8
0
  6
CONTINUOUS
 62
     7
100
AcDbLine
 10
34.28892
 20
53.093039
 30
0.0
 11
36.245875
 21
55.05
 31
0.0
  0
LINE
  5
7D
330
6F
100
AcDbEntity
  8
0
  6
CONTINUOUS
 62
     7
100
AcDbLine
 10
34.28892
 20
51.970507
 30
0.0
 11
37.368409
 21
55.05
 31
0.0
  0
LINE
  5
7E
330
6F
100
AcDbEntity
  8
0
  6
CONTINUOUS
 62
     7
100
AcDbLine
 10
34.28892
 20
50.847975
 30
0.0
 11
38.490943
 21
55.05
 31
0.0
  0
LINE
  5
7F
330
6F
100
AcDbEntity
  8
0
  6
CONTINUOUS
 62
     7
100
AcDbLine
 10
34.28892
 20
49.725443
 30
0.0
 11
39.613477
 21
55.05
 31
0.0
  0
LINE
  5
80
330
6F
100
AcDbEntity
  8
0
  6
CONTINUOUS
 62
     7
100
AcDbLine
 10
34.28892
 20
48.602911
 30
0.0
 11
40.736012
 21
55.05
 31
0.0
  0
LINE
  5
81
330
6F
100
AcDbEntity
  8
0
  6
CONTINUOUS
 62
     7
100
AcDbLine
 10
34.28892
 20
47.480379
 30
0.0
 11
41.858531
 21
55.05
 31
0.0
  0
LINE
  5
82
330
6F
100
AcDbEntity
  8
0
  6
CONTINUOUS
 62
     7
100
AcDbLine
 10
34.28892
 20
46.357847
 30
0.0
 11
42.981065
 21
55.05
 31
0.0
  0
LINE
  5
83
330
6F
100
AcDbEntity
  8
0
  6
CONTINUOUS
 62
     7
100
AcDbLine
 10
34.28892
 20
45.235315
 30
0.0
 11
44.1036
 21
55.05
 31
0.0
  0
LINE
  5
84
330
6F
100
AcDbEntity
  8
0
  6
CONTINUOUS
 62
     7
100
AcDbLine
 10
34.28892
 20
44.112783
 30
0.0
 11
45.226134
 21
55.05
 31
0.0
  0
LINE
  5
85
330
6F
100
AcDbEntity
  8
0
  6
CONTINUOUS
 62
     7
100
AcDbLine
 10
34.28892
 20
42.99025
 30
0.0
 11
46.348668
 21
55.05
 31
0.0
  0
LINE
  5
86
330
6F
100
AcDbEntity
  8
0
  6
CONTINUOUS
 62
     7
100
AcDbLine
 10
34.28892
 20
41.867718
 30
0.0
 11
47.471202
 21
55.05
 31
0.0
  0
LINE
  5
87
330
6F
100
AcDbEntity
  8
0
  6
CONTINUOUS
 62
     7
100
AcDbLine
 10
34.28892
 20
40.745186
 30
0.0
 11
48.593737
 21
55.05
 31
0.0
  0
LINE
  5
88
330
6F
100
AcDbEntity
  8
0
  6
CONTINUOUS
 62
     7
100
AcDbLine
 10
34.28892
 20
39.622654
 30
0.0
 11
49.716256
 21
55.05
 31
0.0
  0
LINE
  5
89
330
6F
100
AcDbEntity
  8
0
  6
CONTINUOUS
 62
     7
100
AcDbLine
 10
34.28892
 20
38.500122
 30
0.0
 11
50.83879
 21
55.05
 31
0.0
  0
LINE
  5
8A
330
6F
100
AcDbEntity
  8
0
  6
CONTINUOUS
 62
     7
100
AcDbLine
 10
34.28892
 20
37.37759
 30
0.0
 11
51.28891
 21
54.37759
 31
0.0
  0
LINE
  5
8B
330
6F
100
AcDbEntity
  8
0
  6
CONTINUOUS
 62
     7
100
AcDbLine
 10
34.386388
 20
36.352529
 30
0.0
 11
51.28891
 21
53.255058
 31
0.0
  0
LINE
  5
8C
330
6F
100
AcDbEntity
  8
0
  6
CONTINUOUS
 62
     7
100
AcDbLine
 10
35.406388
 20
36.25
 30
0.0
 11
51.28891
 21
52.132526
 31
0.0
  0
LINE
  5
8D
330
6F
100
AcDbEntity
  8
0
  6
CONTINUOUS
 62
     7
100
AcDbLine
 10
36.528922
 20
36.25
 30
0.0
 11
51.28891
 21
51.009995
 31
0.0
  0
LINE
  5
8E
330
6F
100
AcDbEntity
  8
0
  6
CONTINUOUS
 62
     7
100
AcDbLine
 10
37.651456
 20
36.25
 30
0.0
 11
51.28891
 21
49.887462
 31
0.0
  0
LINE
  5
8F
330
6F
100
AcDbEntity
  8
0
  6
CONTINUOUS
 62
     7
100
AcDbLine
 10
38.773991
 20
36.25
 30
0.0
 11
51.28891
 21
48.76493
 31
0.0
  0
LINE
  5
90
330
6F
100
AcDbEntity
  8
0
  6
CONTINUOUS
 62
     7
100
AcDbLine
 10
39.896525
 20
36.25
 30
0.0
 11
51.28891
 21
47.642398
 31
0.0
  0
LINE
  5
91
330
6F
100
AcDbEntity
  8
0
  6
CONTINUOUS
 62
     7
100
AcDbLine
 10
41.019044
 20
36.25
 30
0.0
 11
51.28891
 21
46.519866
 31
0.0
  0
LINE
  5
92
330
6F
100
AcDbEntity
  8
0
  6
CONTINUOUS
 62
     7
100
AcDbLine
 10
42.141579
 20
36.25
 30
0.0
 11
51.28891
 21
45.397334
 31
0.0
  0
LINE
  5
93
330
6F
100
AcDbEntity
  8
0
  6
CONTINUOUS
 62
     7
100
AcDbLine
 10
43.264113
 20
36.25
 30
0.0
 11
51.28891
 21
44.274802
 31
0.0
  0
LINE
  5
94
330
6F
100
AcDbEntity
  8
0
  6
CONTINUOUS
 62
     7
100
AcDbLine
 10
44.386647
 20
36.25
 30
0.0
 11
51.28891
 21
43.15227
 31
0.0
  0
LINE
  5
95
330
6F
100
AcDbEntity
  8
0
  6
CONTINUOUS
 62
     7
100
AcDbLine
 10
45.509181
 20
36.25
 30
0.0
 11
51.28891
 21
42.029738
 31
0.0
  0
LINE
  5
96
330
6F
100
AcDbEntity
  8
0
  6
CONTINUOUS
 62
     7
100
AcDbLine
 10
46.631716
 20
36.25
 30
0.0
 11
51.28891
 21
40.907206
 31
0.0
  0
LINE
  5
97
330
6F
100
AcDbEntity
  8
0
  6
CONTINUOUS
 62
     7
100
AcDbLine
 10
47.754235
 20
36.25
 30
0.0
 11
51.28891
 21
39.784674
 31
0.0
  0
LINE
  5
98
330
6F
100
AcDbEntity
  8
0
  6
CONTINUOUS
 62
     7
100
AcDbLine
 10
48.876769
 20
36.25
 30
0.0
 11
51.28891
 21
38.662142
 31
0.0
  0
LINE
  5
99
330
6F
100
AcDbEntity
  8
0
  6
CONTINUOUS
 62
     7
100
AcDbLine
 10
49.999304
 20
36.25
 30
0.0
 11
51.28891
 21
37.53961
 31
0.0
  0
LINE
  5
9A
330
6F
100
AcDbEntity
  8
0
  6
CONTINUOUS
 62
     7
100
AcDbLine
 10
34.968413
 20
36.25
 30
0.0
 11
34.28892
 21
36.929493
 31
0.0
  0
LINE
  5
9B
330
6F
100
AcDbEntity
  8
0
  6
CONTINUOUS
 62
     7
100
AcDbLine
 10
36.090947
 20
36.25
 30
0.0
 11
34.28892
 21
38.052025
 31
0.0
  0
LINE
  5
9C
330
6F
100
AcDbEntity
  8
0
  6
CONTINUOUS
 62
     7
100
AcDbLine
 10
37.213467
 20
36.25
 30
0.0
 11
34.28892
 21
39.174557
 31
0.0
  0
LINE
  5
9D
330
6F
100
AcDbEntity
  8
0
  6
CONTINUOUS
 62
     7
100
AcDbLine
 10
38.336001
 20
36.25
 30
0.0
 11
34.28892
 21
40.297089
 31
0.0
  0
LINE
  5
9E
330
6F
100
AcDbEntity
  8
0
  6
CONTINUOUS
 62
     7
100
AcDbLine
 10
39.458535
 20
36.25
 30
0.0
 11
34.28892
 21
41.419621
 31
0.0
  0
LINE
  5
9F
330
6F
100
AcDbEntity
  8
0
  6
CONTINUOUS
 62
     7
100
AcDbLine
 10
40.581069
 20
36.25
 30
0.0
 11
34.28892
 21
42.542153
 31
0.0
  0
LINE
  5
A0
330
6F
100
AcDbEntity
  8
0
  6
CONTINUOUS
 62
     7
100
AcDbLine
 10
41.703604
 20
36.25
 30
0.0
 11
34.28892
 21
43.664685
 31
0.0
  0
LINE
  5
A1
330
6F
100
AcDbEntity
  8
0
  6
CONTINUOUS
 62
     7
100
AcDbLine
 10
42.826138
 20
36.25
 30
0.0
 11
34.28892
 21
44.787217
 31
0.0
  0
LINE
  5
A2
330
6F
100
AcDbEntity
  8
0
  6
CONTINUOUS
 62
     7
100
AcDbLine
 10
43.948672
 20
36.25
 30
0.0
 11
34.28892
 21
45.90975
 31
0.0
  0
LINE
  5
A3
330
6F
100
AcDbEntity
  8
0
  6
CONTINUOUS
 62
     7
100
AcDbLine
 10
45.071192
 20
36.25
 30
0.0
 11
34.28892
 21
47.032282
 31
0.0
  0
LINE
  5
A4
330
6F
100
AcDbEntity
  8
0
  6
CONTINUOUS
 62
     7
100
AcDbLine
 10
46.193726
 20
36.25
 30
0.0
 11
34.28892
 21
48.154814
 31
0.0
  0
LINE
  5
A5
330
6F
100
AcDbEntity
  8
0
  6
CONTINUOUS
 62
     7
100
AcDbLine
 10
47.31626
 20
36.25
 30
0.0
 11
34.28892
 21
49.277346
 31
0.0
  0
LINE
  5
A6
330
6F
100
AcDbEntity
  8
0
  6
CONTINUOUS
 62
     7
100
AcDbLine
 10
48.438794
 20
36.25
 30
0.0
 11
34.28892
 21
50.399878
 31
0.0
  0
LINE
  5
A7
330
6F
100
AcDbEntity
  8
0
  6
CONTINUOUS
 62
     7
100
AcDbLine
 10
49.561329
 20
36.25
 30
0.0
 11
34.28892
 21
51.52241
 31
0.0
  0
LINE
  5
A8
330
6F
100
AcDbEntity
  8
0
  6
CONTINUOUS
 62
     7
100
AcDbLine
 10
50.683863
 20
36.25
 30
0.0
 11
34.28892
 21
52.644942
 31
0.0
  0
LINE
  5
A9
330
6F
100
AcDbEntity
  8
0
  6
CONTINUOUS
 62
     7
100
AcDbLine
 10
51.28891
 20
36.767474
 30
0.0
 11
34.28892
 21
53.767474
 31
0.0
  0
LINE
  5
AA
330
6F
100
AcDbEntity
  8
0
  6
CONTINUOUS
 62
     7
100
AcDbLine
 10
51.28891
 20
37.890005
 30
0.0
 11
34.308917
 21
54.870003
 31
0.0
  0
LINE
  5
AB
330
6F
100
AcDbEntity
  8
0
  6
CONTINUOUS
 62
     7
100
AcDbLine
 10
51.28891
 20
39.012538
 30
0.0
 11
35.25146
 21
55.05
 31
0.0
  0
LINE
  5
AC
330
6F
100
AcDbEntity
  8
0
  6
CONTINUOUS
 62
     7
100
AcDbLine
 10
51.28891
 20
40.13507
 30
0.0
 11
36.37398
 21
55.05
 31
0.0
  0
LINE
  5
AD
330
6F
100
AcDbEntity
  8
0
  6
CONTINUOUS
 62
     7
100
AcDbLine
 10
51.28891
 20
41.257602
 30
0.0
 11
37.496514
 21
55.05
 31
0.0
  0
LINE
  5
AE
330
6F
100
AcDbEntity
  8
0
  6
CONTINUOUS
 62
     7
100
AcDbLine
 10
51.28891
 20
42.380134
 30
0.0
 11
38.619048
 21
55.05
 31
0.0
  0
LINE
  5
AF
330
6F
100
AcDbEntity
  8
0
  6
CONTINUOUS
 62
     7
100
AcDbLine
 10
51.28891
 20
43.502666
 30
0.0
 11
39.741583
 21
55.05
 31
0.0
  0
LINE
  5
B0
330
6F
100
AcDbEntity
  8
0
  6
CONTINUOUS
 62
     7
100
AcDbLine
 10
51.28891
 20
44.625198
 30
0.0
 11
40.864117
 21
55.05
 31
0.0
  0
LINE
  5
B1
330
6F
100
AcDbEntity
  8
0
  6
CONTINUOUS
 62
     7
100
AcDbLine
 10
51.28891
 20
45.74773
 30
0.0
 11
41.986651
 21
55.05
 31
0.0
  0
LINE
  5
B2
330
6F
100
AcDbEntity
  8
0
  6
CONTINUOUS
 62
     7
100
AcDbLine
 10
51.28891
 20
46.870262
 30
0.0
 11
43.109171
 21
55.05
 31
0.0
  0
LINE
  5
B3
330
6F
100
AcDbEntity
  8
0
  6
CONTINUOUS
 62
     7
100
AcDbLine
 10
51.28891
 20
47.992794
 30
0.0
 11
44.231705
 21
55.05
 31
0.0
  0
LINE
  5
B4
330
6F
100
AcDbEntity
  8
0
  6
CONTINUOUS
 62
     7
100
AcDbLine
 10
51.28891
 20
49.115326
 30
0.0
 11
45.354239
 21
55.05
 31
0.0
  0
LINE
  5
B5
330
6F
100
AcDbEntity
  8
0
  6
CONTINUOUS
 62
     7
100
AcDbLine
 10
51.28891
 20
50.237858
 30
0.0
 11
46.476773
 21
55.05
 31
0.0
  0
LINE
  5
B6
330
6F
100
AcDbEntity
  8
0
  6
CONTINUOUS
 62
     7
100
AcDbLine
 10
51.28891
 20
51.36039
 30
0.0
 11
47.599308
 21
55.05
 31
0.0
  0
LINE
  5
B7
330
6F
100
AcDbEntity
  8
0
  6
CONTINUOUS
 62
     7
100
AcDbLine
 10
51.28891
 20
52.482922
 30
0.0
 11
48.721842
 21
55.05
 31
0.0
  0
LINE
  5
B8
330
6F
100
AcDbEntity
  8
0
  6
CONTINUOUS
 62
     7
100
AcDbLine
 10
51.28891
 20
53.605454
 30
0.0
 11
49.844376
 21
55.05
 31
0.0
  0
LINE
  5
B9
330
6F
100
AcDbEntity
  8
0
  6
CONTINUOUS
 62
     7
100
AcDbLine
 10
51.28891
 20
54.727986
 30
0.0
 11
50.966896
 21
55.05
 31
0.0
  0
LINE
  5
BA
330
6F
100
AcDbEntity
  8
0
  6
CONTINUOUS
 62
     7
100
AcDbLine
 10
253.584962
 20
51.9
 30
0.0
 11
257.784958
 21
51.9
 31
0.0
  0
LINE
  5
BB
330
6F
100
AcDbEntity
  8
0
  6
CONTINUOUS
 62
     7
100
AcDbLine
 10
253.584962
 20
51.9
 30
0.0
 11
253.584962
 21
33.8
 31
0.0
  0
LINE
  5
BC
330
6F
100
AcDbEntity
  8
0
  6
CONTINUOUS
 62
     7
100
AcDbLine
 10
253.584962
 20
33.8
 30
0.0
 11
257.784958
 21
33.8
 31
0.0
  0
LINE
  5
BD
330
6F
100
AcDbEntity
  8
0
  6
CONTINUOUS
 62
     7
100
AcDbLine
 10
257.784958
 20
51.9
 30
0.0
 11
257.784958
 21
33.8
 31
0.0
  0
LINE
  5
BE
330
6F
100
AcDbEntity
  8
0
  6
CONTINUOUS
 62
     7
100
AcDbLine
 10
260.284956
 20
51.9
 30
0.0
 11
265.284966
 21
51.9
 31
0.0
  0
LINE
  5
BF
330
6F
100
AcDbEntity
  8
0
  6
CONTINUOUS
 62
     7
100
AcDbLine
 10
260.284956
 20
51.9
 30
0.0
 11
260.284956
 21
33.8
 31
0.0
  0
LINE
  5
C0
330
6F
100
AcDbEntity
  8
0
  6
CONTINUOUS
 62
     7
100
AcDbLine
 10
260.284956
 20
33.8
 30
0.0
 11
265.284966
 21
33.8
 31
0.0
  0
LINE
  5
C1
330
6F
100
AcDbEntity
  8
0
  6
CONTINUOUS
 62
     7
100
AcDbLine
 10
265.284966
 20
51.9
 30
0.0
 11
265.284966
 21
33.8
 31
0.0
  0
LINE
  5
C2
330
6F
100
AcDbEntity
  8
0
  6
CONTINUOUS
 62
     7
100
AcDbLine
 10
254.334445
 20
51.9
 30
0.0
 11
253.584962
 21
51.150518
 31
0.0
  0
LINE
  5
C3
330
6F
100
AcDbEntity
  8
0
  6
CONTINUOUS
 62
     7
100
AcDbLine
 10
255.456979
 20
51.9
 30
0.0
 11
253.584962
 21
50.027986
 31
0.0
  0
LINE
  5
C4
330
6F
100
AcDbEntity
  8
0
  6
CONTINUOUS
 62
     7
100
AcDbLine
 10
256.579514
 20
51.9
 30
0.0
 11
253.584962
 21
48.905454
 31
0.0
  0
LINE
  5
C5
330
6F
100
AcDbEntity
  8
0
  6
CONTINUOUS
 62
     7
100
AcDbLine
 10
257.702033
 20
51.9
 30
0.0
 11
253.584962
 21
47.782922
 31
0.0
  0
LINE
  5
C6
330
6F
100
AcDbEntity
  8
0
  6
CONTINUOUS
 62
     7
100
AcDbLine
 10
257.784958
 20
50.86039
 30
0.0
 11
253.584962
 21
46.66039
 31
0.0
  0
LINE
  5
C7
330
6F
100
AcDbEntity
  8
0
  6
CONTINUOUS
 62
     7
100
AcDbLine
 10
257.784958
 20
49.737858
 30
0.0
 11
253.584962
 21
45.537858
 31
0.0
  0
LINE
  5
C8
330
6F
100
AcDbEntity
  8
0
  6
CONTINUOUS
 62
     7
100
AcDbLine
 10
257.784958
 20
48.615326
 30
0.0
 11
253.584962
 21
44.415326
 31
0.0
  0
LINE
  5
C9
330
6F
100
AcDbEntity
  8
0
  6
CONTINUOUS
 62
     7
100
AcDbLine
 10
257.784958
 20
47.492794
 30
0.0
 11
253.584962
 21
43.292794
 31
0.0
  0
LINE
  5
CA
330
6F
100
AcDbEntity
  8
0
  6
CONTINUOUS
 62
     7
100
AcDbLine
 10
257.784958
 20
46.370262
 30
0.0
 11
253.584962
 21
42.170262
 31
0.0
  0
LINE
  5
CB
330
6F
100
AcDbEntity
  8
0
  6
CONTINUOUS
 62
     7
100
AcDbLine
 10
257.784958
 20
45.24773
 30
0.0
 11
253.584962
 21
41.04773
 31
0.0
  0
LINE
  5
CC
330
6F
100
AcDbEntity
  8
0
  6
CONTINUOUS
 62
     7
100
AcDbLine
 10
257.784958
 20
44.125198
 30
0.0
 11
253.584962
 21
39.925198
 31
0.0
  0
LINE
  5
CD
330
6F
100
AcDbEntity
  8
0
  6
CONTINUOUS
 62
     7
100
AcDbLine
 10
257.784958
 20
43.002666
 30
0.0
 11
253.584962
 21
38.802666
 31
0.0
  0
LINE
  5
CE
330
6F
100
AcDbEntity
  8
0
  6
CONTINUOUS
 62
     7
100
AcDbLine
 10
257.784958
 20
41.880134
 30
0.0
 11
253.584962
 21
37.680134
 31
0.0
  0
LINE
  5
CF
330
6F
100
AcDbEntity
  8
0
  6
CONTINUOUS
 62
     7
100
AcDbLine
 10
257.784958
 20
40.757602
 30
0.0
 11
253.584962
 21
36.557602
 31
0.0
  0
LINE
  5
D0
330
6F
100
AcDbEntity
  8
0
  6
CONTINUOUS
 62
     7
100
AcDbLine
 10
257.784958
 20
39.63507
 30
0.0
 11
253.584962
 21
35.435069
 31
0.0
  0
LINE
  5
D1
330
6F
100
AcDbEntity
  8
0
  6
CONTINUOUS
 62
     7
100
AcDbLine
 10
257.784958
 20
38.512538
 30
0.0
 11
253.584962
 21
34.312538
 31
0.0
  0
LINE
  5
D2
330
6F
100
AcDbEntity
  8
0
  6
CONTINUOUS
 62
     7
100
AcDbLine
 10
257.784958
 20
37.390006
 30
0.0
 11
254.194955
 21
33.8
 31
0.0
  0
LINE
  5
D3
330
6F
100
AcDbEntity
  8
0
  6
CONTINUOUS
 62
     7
100
AcDbLine
 10
257.784958
 20
36.267473
 30
0.0
 11
255.31749
 21
33.8
 31
0.0
  0
LINE
  5
D4
330
6F
100
AcDbEntity
  8
0
  6
CONTINUOUS
 62
     7
100
AcDbLine
 10
257.784958
 20
35.144942
 30
0.0
 11
256.440024
 21
33.8
 31
0.0
  0
LINE
  5
D5
330
6F
100
AcDbEntity
  8
0
  6
CONTINUOUS
 62
     7
100
AcDbLine
 10
257.784958
 20
34.02241
 30
0.0
 11
257.562543
 21
33.8
 31
0.0
  0
LINE
  5
D6
330
6F
100
AcDbEntity
  8
0
  6
CONTINUOUS
 62
     7
100
AcDbLine
 10
253.584962
 20
34.381886
 30
0.0
 11
254.166852
 21
33.8
 31
0.0
  0
LINE
  5
D7
330
6F
100
AcDbEntity
  8
0
  6
CONTINUOUS
 62
     7
100
AcDbLine
 10
253.584962
 20
35.504418
 30
0.0
 11
255.289371
 21
33.8
 31
0.0
  0
LINE
  5
D8
330
6F
100
AcDbEntity
  8
0
  6
CONTINUOUS
 62
     7
100
AcDbLine
 10
253.584962
 20
36.62695
 30
0.0
 11
256.411905
 21
33.8
 31
0.0
  0
LINE
  5
D9
330
6F
100
AcDbEntity
  8
0
  6
CONTINUOUS
 62
     7
100
AcDbLine
 10
253.584962
 20
37.749482
 30
0.0
 11
257.53444
 21
33.8
 31
0.0
  0
LINE
  5
DA
330
6F
100
AcDbEntity
  8
0
  6
CONTINUOUS
 62
     7
100
AcDbLine
 10
253.584962
 20
38.872014
 30
0.0
 11
257.784958
 21
34.672014
 31
0.0
  0
LINE
  5
DB
330
6F
100
AcDbEntity
  8
0
  6
CONTINUOUS
 62
     7
100
AcDbLine
 10
253.584962
 20
39.994546
 30
0.0
 11
257.784958
 21
35.794546
 31
0.0
  0
LINE
  5
DC
330
6F
100
AcDbEntity
  8
0
  6
CONTINUOUS
 62
     7
100
AcDbLine
 10
253.584962
 20
41.117078
 30
0.0
 11
257.784958
 21
36.917078
 31
0.0
  0
LINE
  5
DD
330
6F
100
AcDbEntity
  8
0
  6
CONTINUOUS
 62
     7
100
AcDbLine
 10
253.584962
 20
42.23961
 30
0.0
 11
257.784958
 21
38.03961
 31
0.0
  0
LINE
  5
DE
330
6F
100
AcDbEntity
  8
0
  6
CONTINUOUS
 62
     7
100
AcDbLine
 10
253.584962
 20
43.362142
 30
0.0
 11
257.784958
 21
39.162142
 31
0.0
  0
LINE
  5
DF
330
6F
100
AcDbEntity
  8
0
  6
CONTINUOUS
 62
     7
100
AcDbLine
 10
253.584962
 20
44.484674
 30
0.0
 11
257.784958
 21
40.284674
 31
0.0
  0
LINE
  5
E0
330
6F
100
AcDbEntity
  8
0
  6
CONTINUOUS
 62
     7
100
AcDbLine
 10
253.584962
 20
45.607206
 30
0.0
 11
257.784958
 21
41.407206
 31
0.0
  0
LINE
  5
E1
330
6F
100
AcDbEntity
  8
0
  6
CONTINUOUS
 62
     7
100
AcDbLine
 10
253.584962
 20
46.729738
 30
0.0
 11
257.784958
 21
42.529738
 31
0.0
  0
LINE
  5
E2
330
6F
100
AcDbEntity
  8
0
  6
CONTINUOUS
 62
     7
100
AcDbLine
 10
253.584962
 20
47.85227
 30
0.0
 11
257.784958
 21
43.65227
 31
0.0
  0
LINE
  5
E3
330
6F
100
AcDbEntity
  8
0
  6
CONTINUOUS
 62
     7
100
AcDbLine
 10
253.584962
 20
48.974802
 30
0.0
 11
257.784958
 21
44.774802
 31
0.0
  0
LINE
  5
E4
330
6F
100
AcDbEntity
  8
0
  6
CONTINUOUS
 62
     7
100
AcDbLine
 10
253.584962
 20
50.097334
 30
0.0
 11
257.784958
 21
45.897334
 31
0.0
  0
LINE
  5
E5
330
6F
100
AcDbEntity
  8
0
  6
CONTINUOUS
 62
     7
100
AcDbLine
 10
253.584962
 20
51.219866
 30
0.0
 11
257.784958
 21
47.019866
 31
0.0
  0
LINE
  5
E6
330
6F
100
AcDbEntity
  8
0
  6
CONTINUOUS
 62
     7
100
AcDbLine
 10
254.027362
 20
51.9
 30
0.0
 11
257.784958
 21
48.142398
 31
0.0
  0
LINE
  5
E7
330
6F
100
AcDbEntity
  8
0
  6
CONTINUOUS
 62
     7
100
AcDbLine
 10
255.149896
 20
51.9
 30
0.0
 11
257.784958
 21
49.26493
 31
0.0
  0
LINE
  5
E8
330
6F
100
AcDbEntity
  8
0
  6
CONTINUOUS
 62
     7
100
AcDbLine
 10
256.272416
 20
51.9
 30
0.0
 11
257.784958
 21
50.387462
 31
0.0
  0
LINE
  5
E9
330
6F
100
AcDbEntity
  8
0
  6
CONTINUOUS
 62
     7
100
AcDbLine
 10
257.39495
 20
51.9
 30
0.0
 11
257.784958
 21
51.509994
 31
0.0
  0
LINE
  5
EA
330
6F
100
AcDbEntity
  8
0
  6
CONTINUOUS
 62
     7
100
AcDbLine
 10
260.284956
 20
51.115326
 30
0.0
 11
261.069636
 21
51.9
 31
0.0
  0
LINE
  5
EB
330
6F
100
AcDbEntity
  8
0
  6
CONTINUOUS
 62
     7
100
AcDbLine
 10
260.284956
 20
49.992794
 30
0.0
 11
262.19217
 21
51.9
 31
0.0
  0
LINE
  5
EC
330
6F
100
AcDbEntity
  8
0
  6
CONTINUOUS
 62
     7
100
AcDbLine
 10
260.284956
 20
48.870262
 30
0.0
 11
263.314705
 21
51.9
 31
0.0
  0
LINE
  5
ED
330
6F
100
AcDbEntity
  8
0
  6
CONTINUOUS
 62
     7
100
AcDbLine
 10
260.284956
 20
47.74773
 30
0.0
 11
264.437224
 21
51.9
 31
0.0
  0
LINE
  5
EE
330
6F
100
AcDbEntity
  8
0
  6
CONTINUOUS
 62
     7
100
AcDbLine
 10
260.284956
 20
46.625198
 30
0.0
 11
265.284966
 21
51.625198
 31
0.0
  0
LINE
  5
EF
330
6F
100
AcDbEntity
  8
0
  6
CONTINUOUS
 62
     7
100
AcDbLine
 10
260.284956
 20
45.502666
 30
0.0
 11
265.284966
 21
50.502666
 31
0.0
  0
LINE
  5
F0
330
6F
100
AcDbEntity
  8
0
  6
CONTINUOUS
 62
     7
100
AcDbLine
 10
260.284956
 20
44.380134
 30
0.0
 11
265.284966
 21
49.380134
 31
0.0
  0
LINE
  5
F1
330
6F
100
AcDbEntity
  8
0
  6
CONTINUOUS
 62
     7
100
AcDbLine
 10
260.284956
 20
43.257602
 30
0.0
 11
265.284966
 21
48.257602
 31
0.0
  0
LINE
  5
F2
330
6F
100
AcDbEntity
  8
0
  6
CONTINUOUS
 62
     7
100
AcDbLine
 10
260.284956
 20
42.13507
 30
0.0
 11
265.284966
 21
47.13507
 31
0.0
  0
LINE
  5
F3
330
6F
100
AcDbEntity
  8
0
  6
CONTINUOUS
 62
     7
100
AcDbLine
 10
260.284956
 20
41.012538
 30
0.0
 11
265.284966
 21
46.012538
 31
0.0
  0
LINE
  5
F4
330
6F
100
AcDbEntity
  8
0
  6
CONTINUOUS
 62
     7
100
AcDbLine
 10
260.284956
 20
39.890006
 30
0.0
 11
265.284966
 21
44.890006
 31
0.0
  0
LINE
  5
F5
330
6F
100
AcDbEntity
  8
0
  6
CONTINUOUS
 62
     7
100
AcDbLine
 10
260.284956
 20
38.767474
 30
0.0
 11
265.284966
 21
43.767474
 31
0.0
  0
LINE
  5
F6
330
6F
100
AcDbEntity
  8
0
  6
CONTINUOUS
 62
     7
100
AcDbLine
 10
260.284956
 20
37.644941
 30
0.0
 11
265.284966
 21
42.644942
 31
0.0
  0
LINE
  5
F7
330
6F
100
AcDbEntity
  8
0
  6
CONTINUOUS
 62
     7
100
AcDbLine
 10
260.284956
 20
36.52241
 30
0.0
 11
265.284966
 21
41.52241
 31
0.0
  0
LINE
  5
F8
330
6F
100
AcDbEntity
  8
0
  6
CONTINUOUS
 62
     7
100
AcDbLine
 10
260.284956
 20
35.399878
 30
0.0
 11
265.284966
 21
40.399877
 31
0.0
  0
LINE
  5
F9
330
6F
100
AcDbEntity
  8
0
  6
CONTINUOUS
 62
     7
100
AcDbLine
 10
260.284956
 20
34.277345
 30
0.0
 11
265.284966
 21
39.277345
 31
0.0
  0
LINE
  5
FA
330
6F
100
AcDbEntity
  8
0
  6
CONTINUOUS
 62
     7
100
AcDbLine
 10
260.930146
 20
33.8
 30
0.0
 11
265.284966
 21
38.154814
 31
0.0
  0
LINE
  5
FB
330
6F
100
AcDbEntity
  8
0
  6
CONTINUOUS
 62
     7
100
AcDbLine
 10
262.05268
 20
33.8
 30
0.0
 11
265.284966
 21
37.032282
 31
0.0
  0
LINE
  5
FC
330
6F
100
AcDbEntity
  8
0
  6
CONTINUOUS
 62
     7
100
AcDbLine
 10
263.175215
 20
33.8
 30
0.0
 11
265.284966
 21
35.90975
 31
0.0
  0
LINE
  5
FD
330
6F
100
AcDbEntity
  8
0
  6
CONTINUOUS
 62
     7
100
AcDbLine
 10
264.297749
 20
33.8
 30
0.0
 11
265.284966
 21
34.787217
 31
0.0
  0
LINE
  5
FE
330
6F
100
AcDbEntity
  8
0
  6
CONTINUOUS
 62
     7
100
AcDbLine
 10
260.902043
 20
33.8
 30
0.0
 11
260.284956
 21
34.417078
 31
0.0
  0
LINE
  5
FF
330
6F
100
AcDbEntity
  8
0
  6
CONTINUOUS
 62
     7
100
AcDbLine
 10
262.024577
 20
33.8
 30
0.0
 11
260.284956
 21
35.53961
 31
0.0
  0
LINE
  5
100
330
6F
100
AcDbEntity
  8
0
  6
CONTINUOUS
 62
     7
100
AcDbLine
 10
263.147096
 20
33.8
 30
0.0
 11
260.284956
 21
36.662142
 31
0.0
  0
LINE
  5
101
330
6F
100
AcDbEntity
  8
0
  6
CONTINUOUS
 62
     7
100
AcDbLine
 10
264.269631
 20
33.8
 30
0.0
 11
260.284956
 21
37.784674
 31
0.0
  0
LINE
  5
102
330
6F
100
AcDbEntity
  8
0
  6
CONTINUOUS
 62
     7
100
AcDbLine
 10
265.284966
 20
33.907206
 30
0.0
 11
260.284956
 21
38.907206
 31
0.0
  0
LINE
  5
103
330
6F
100
AcDbEntity
  8
0
  6
CONTINUOUS
 62
     7
100
AcDbLine
 10
265.284966
 20
35.029738
 30
0.0
 11
260.284956
 21
40.029738
 31
0.0
  0
LINE
  5
104
330
6F
100
AcDbEntity
  8
0
  6
CONTINUOUS
 62
     7
100
AcDbLine
 10
265.284966
 20
36.152271
 30
0.0
 11
260.284956
 21
41.15227
 31
0.0
  0
LINE
  5
105
330
6F
100
AcDbEntity
  8
0
  6
CONTINUOUS
 62
     7
100
AcDbLine
 10
265.284966
 20
37.274802
 30
0.0
 11
260.284956
 21
42.274802
 31
0.0
  0
LINE
  5
106
330
6F
100
AcDbEntity
  8
0
  6
CONTINUOUS
 62
     7
100
AcDbLine
 10
265.284966
 20
38.397334
 30
0.0
 11
260.284956
 21
43.397334
 31
0.0
  0
LINE
  5
107
330
6F
100
AcDbEntity
  8
0
  6
CONTINUOUS
 62
     7
100
AcDbLine
 10
265.284966
 20
39.519866
 30
0.0
 11
260.284956
 21
44.519866
 31
0.0
  0
LINE
  5
108
330
6F
100
AcDbEntity
  8
0
  6
CONTINUOUS
 62
     7
100
AcDbLine
 10
265.284966
 20
40.642398
 30
0.0
 11
260.284956
 21
45.642398
 31
0.0
  0
LINE
  5
109
330
6F
100
AcDbEntity
  8
0
  6
CONTINUOUS
 62
     7
100
AcDbLine
 10
265.284966
 20
41.76493
 30
0.0
 11
260.284956
 21
46.76493
 31
0.0
  0
LINE
  5
10A
330
6F
100
AcDbEntity
  8
0
  6
CONTINUOUS
 62
     7
100
AcDbLine
 10
265.284966
 20
42.887462
 30
0.0
 11
260.284956
 21
47.887462
 31
0.0
  0
LINE
  5
10B
330
6F
100
AcDbEntity
  8
0
  6
CONTINUOUS
 62
     7
100
AcDbLine
 10
265.284966
 20
44.009994
 30
0.0
 11
260.284956
 21
49.009994
 31
0.0
  0
LINE
  5
10C
330
6F
100
AcDbEntity
  8
0
  6
CONTINUOUS
 62
     7
100
AcDbLine
 10
265.284966
 20
45.132526
 30
0.0
 11
260.284956
 21
50.132526
 31
0.0
  0
LINE
  5
10D
330
6F
100
AcDbEntity
  8
0
  6
CONTINUOUS
 62
     7
100
AcDbLine
 10
265.284966
 20
46.255058
 30
0.0
 11
260.284956
 21
51.255059
 31
0.0
  0
LINE
  5
10E
330
6F
100
AcDbEntity
  8
0
  6
CONTINUOUS
 62
     7
100
AcDbLine
 10
265.284966
 20
47.37759
 30
0.0
 11
260.762553
 21
51.9
 31
0.0
  0
LINE
  5
10F
330
6F
100
AcDbEntity
  8
0
  6
CONTINUOUS
 62
     7
100
AcDbLine
 10
265.284966
 20
48.500123
 30
0.0
 11
261.885087
 21
51.9
 31
0.0
  0
LINE
  5
110
330
6F
100
AcDbEntity
  8
0
  6
CONTINUOUS
 62
     7
100
AcDbLine
 10
265.284966
 20
49.622655
 30
0.0
 11
263.007621
 21
51.9
 31
0.0
  0
LINE
  5
111
330
6F
100
AcDbEntity
  8
0
  6
CONTINUOUS
 62
     7
100
AcDbLine
 10
265.284966
 20
50.745186
 30
0.0
 11
264.130141
 21
51.9
 31
0.0
  0
LINE
  5
112
330
6F
100
AcDbEntity
  8
0
  6
CONTINUOUS
 62
     7
100
AcDbLine
 10
265.284966
 20
51.867718
 30
0.0
 11
265.252675
 21
51.9
 31
0.0
  0
ENDBLK
  5
71
330
6F
100
AcDbEntity
  8
0
100
AcDbBlockEnd
  0
BLOCK
  5
195
330
194
100
AcDbEntity
  8
0
100
AcDbBlockBegin
  2
BLKF012
 70
     0
 71
     0
 10
0.0
 20
0.0
 30
0.0
  3
BLKF012
  1

  0
LINE
  5
198
330
194
100
AcDbEntity
  8
0
  6
CONTINUOUS
 62
     7
100
AcDbLine
 10
75.68892
 20
46.796152
 30
0.0
 11
75.657774
 21
46.837825
 31
0.0
  0
LINE
  5
199
330
194
100
AcDbEntity
  8
0
  6
CONTINUOUS
 62
     7
100
AcDbLine
 10
75.657774
 20
46.837825
 30
0.0
 11
75.642282
 21
46.858716
 31
0.0
  0
LINE
  5
19A
330
194
100
AcDbEntity
  8
0
  6
CONTINUOUS
 62
     7
100
AcDbLine
 10
75.642282
 20
46.858716
 30
0.0
 11
75.626887
 21
46.879674
 31
0.0
  0
LINE
  5
19B
330
194
100
AcDbEntity
  8
0
  6
CONTINUOUS
 62
     7
100
AcDbLine
 10
75.626887
 20
46.879674
 30
0.0
 11
75.611622
 21
46.90072
 31
0.0
  0
LINE
  5
19C
330
194
100
AcDbEntity
  8
0
  6
CONTINUOUS
 62
     7
100
AcDbLine
 10
75.611622
 20
46.90072
 30
0.0
 11
75.596518
 21
46.921877
 31
0.0
  0
LINE
  5
19D
330
194
100
AcDbEntity
  8
0
  6
CONTINUOUS
 62
     7
100
AcDbLine
 10
75.596518
 20
46.921877
 30
0.0
 11
75.581608
 21
46.943166
 31
0.0
  0
LINE
  5
19E
330
194
100
AcDbEntity
  8
0
  6
CONTINUOUS
 62
     7
100
AcDbLine
 10
75.581608
 20
46.943166
 30
0.0
 11
75.566925
 21
46.96461
 31
0.0
  0
LINE
  5
19F
330
194
100
AcDbEntity
  8
0
  6
CONTINUOUS
 62
     7
100
AcDbLine
 10
75.566925
 20
46.96461
 30
0.0
 11
75.546988
 21
46.994582
 31
0.0
  0
LINE
  5
1A0
330
194
100
AcDbEntity
  8
0
  6
CONTINUOUS
 62
     7
100
AcDbLine
 10
75.546988
 20
46.994582
 30
0.0
 11
75.527424
 21
47.024808
 31
0.0
  0
LINE
  5
1A1
330
194
100
AcDbEntity
  8
0
  6
CONTINUOUS
 62
     7
100
AcDbLine
 10
75.527424
 20
47.024808
 30
0.0
 11
75.508109
 21
47.055203
 31
0.0
  0
LINE
  5
1A2
330
194
100
AcDbEntity
  8
0
  6
CONTINUOUS
 62
     7
100
AcDbLine
 10
75.508109
 20
47.055203
 30
0.0
 11
75.488917
 21
47.085684
 31
0.0
  0
ENDBLK
  5
196
330
194
100
AcDbEntity
  8
0
100
AcDbBlockEnd
  0
BLOCK
  5
1A8
330
1A7
100
AcDbEntity
  8
0
100
AcDbBlockBegin
  2
BLKF013
 70
     0
 71
     0
 10
0.0
 20
0.0
 30
0.0
  3
BLKF013
  1

  0
LINE
  5
1AB
330
1A7
100
AcDbEntity
  8
0
  6
CONTINUOUS
 62
     7
100
AcDbLine
 10
78.988917
 20
45.35
 30
0.0
 11
79.008057
 21
45.299074
 31
0.0
  0
LINE
  5
1AC
330
1A7
100
AcDbEntity
  8
0
  6
CONTINUOUS
 62
     7
100
AcDbLine
 10
79.008057
 20
45.299074
 30
0.0
 11
79.027115
 21
45.248107
 31
0.0
  0
LINE
  5
1AD
330
1A7
100
AcDbEntity
  8
0
  6
CONTINUOUS
 62
     7
100
AcDbLine
 10
79.027115
 20
45.248107
 30
0.0
 11
79.04601
 21
45.197059
 31
0.0
  0
LINE
  5
1AE
330
1A7
100
AcDbEntity
  8
0
  6
CONTINUOUS
 62
     7
100
AcDbLine
 10
79.04601
 20
45.197059
 30
0.0
 11
79.064659
 21
45.145889
 31
0.0
  0
LINE
  5
1AF
330
1A7
100
AcDbEntity
  8
0
  6
CONTINUOUS
 62
     7
100
AcDbLine
 10
79.064659
 20
45.145889
 30
0.0
 11
79.075986
 21
45.114313
 31
0.0
  0
LINE
  5
1B0
330
1A7
100
AcDbEntity
  8
0
  6
CONTINUOUS
 62
     7
100
AcDbLine
 10
79.075986
 20
45.114313
 30
0.0
 11
79.087187
 21
45.082676
 31
0.0
  0
LINE
  5
1B1
330
1A7
100
AcDbEntity
  8
0
  6
CONTINUOUS
 62
     7
100
AcDbLine
 10
79.087187
 20
45.082676
 30
0.0
 11
79.098262
 21
45.050979
 31
0.0
  0
LINE
  5
1B2
330
1A7
100
AcDbEntity
  8
0
  6
CONTINUOUS
 62
     7
100
AcDbLine
 10
79.098262
 20
45.050979
 30
0.0
 11
79.109209
 21
45.019224
 31
0.0
  0
LINE
  5
1B3
330
1A7
100
AcDbEntity
  8
0
  6
CONTINUOUS
 62
     7
100
AcDbLine
 10
79.109209
 20
45.019224
 30
0.0
 11
79.120028
 21
44.987412
 31
0.0
  0
LINE
  5
1B4
330
1A7
100
AcDbEntity
  8
0
  6
CONTINUOUS
 62
     7
100
AcDbLine
 10
79.120028
 20
44.987412
 30
0.0
 11
79.130717
 21
44.955543
 31
0.0
  0
LINE
  5
1B5
330
1A7
100
AcDbEntity
  8
0
  6
CONTINUOUS
 62
     7
100
AcDbLine
 10
79.130717
 20
44.955543
 30
0.0
 11
79.141274
 21
44.923618
 31
0.0
  0
LINE
  5
1B6
330
1A7
100
AcDbEntity
  8
0
  6
CONTINUOUS
 62
     7
100
AcDbLine
 10
79.141274
 20
44.923618
 30
0.0
 11
79.151699
 21
44.891638
 31
0.0
  0
LINE
  5
1B7
330
1A7
100
AcDbEntity
  8
0
  6
CONTINUOUS
 62
     7
100
AcDbLine
 10
79.151699
 20
44.891638
 30
0.0
 11
79.16199
 21
44.859605
 31
0.0
  0
LINE
  5
1B8
330
1A7
100
AcDbEntity
  8
0
  6
CONTINUOUS
 62
     7
100
AcDbLine
 10
79.16199
 20
44.859605
 30
0.0
 11
79.172146
 21
44.827519
 31
0.0
  0
LINE
  5
1B9
330
1A7
100
AcDbEntity
  8
0
  6
CONTINUOUS
 62
     7
100
AcDbLine
 10
79.172146
 20
44.827519
 30
0.0
 11
79.182166
 21
44.795381
 31
0.0
  0
LINE
  5
1BA
330
1A7
100
AcDbEntity
  8
0
  6
CONTINUOUS
 62
     7
100
AcDbLine
 10
79.182166
 20
44.795381
 30
0.0
 11
79.192048
 21
44.763193
 31
0.0
  0
LINE
  5
1BB
330
1A7
100
AcDbEntity
  8
0
  6
CONTINUOUS
 62
     7
100
AcDbLine
 10
79.192048
 20
44.763193
 30
0.0
 11
79.201792
 21
44.730954
 31
0.0
  0
LINE
  5
1BC
330
1A7
100
AcDbEntity
  8
0
  6
CONTINUOUS
 62
     7
100
AcDbLine
 10
79.201792
 20
44.730954
 30
0.0
 11
79.211395
 21
44.698667
 31
0.0
  0
LINE
  5
1BD
330
1A7
100
AcDbEntity
  8
0
  6
CONTINUOUS
 62
     7
100
AcDbLine
 10
79.211395
 20
44.698667
 30
0.0
 11
79.220858
 21
44.666332
 31
0.0
  0
LINE
  5
1BE
330
1A7
100
AcDbEntity
  8
0
  6
CONTINUOUS
 62
     7
100
AcDbLine
 10
79.220858
 20
44.666332
 30
0.0
 11
79.230178
 21
44.633949
 31
0.0
  0
LINE
  5
1BF
330
1A7
100
AcDbEntity
  8
0
  6
CONTINUOUS
 62
     7
100
AcDbLine
 10
79.230178
 20
44.633949
 30
0.0
 11
79.239355
 21
44.601521
 31
0.0
  0
LINE
  5
1C0
330
1A7
100
AcDbEntity
  8
0
  6
CONTINUOUS
 62
     7
100
AcDbLine
 10
79.239355
 20
44.601521
 30
0.0
 11
79.248386
 21
44.569048
 31
0.0
  0
LINE
  5
1C1
330
1A7
100
AcDbEntity
  8
0
  6
CONTINUOUS
 62
     7
100
AcDbLine
 10
79.248386
 20
44.569048
 30
0.0
 11
79.257272
 21
44.53653
 31
0.0
  0
LINE
  5
1C2
330
1A7
100
AcDbEntity
  8
0
  6
CONTINUOUS
 62
     7
100
AcDbLine
 10
79.257272
 20
44.53653
 30
0.0
 11
79.26601
 21
44.50397
 31
0.0
  0
LINE
  5
1C3
330
1A7
100
AcDbEntity
  8
0
  6
CONTINUOUS
 62
     7
100
AcDbLine
 10
79.26601
 20
44.50397
 30
0.0
 11
79.274599
 21
44.471367
 31
0.0
  0
LINE
  5
1C4
330
1A7
100
AcDbEntity
  8
0
  6
CONTINUOUS
 62
     7
100
AcDbLine
 10
79.274599
 20
44.471367
 30
0.0
 11
79.283039
 21
44.438724
 31
0.0
  0
LINE
  5
1C5
330
1A7
100
AcDbEntity
  8
0
  6
CONTINUOUS
 62
     7
100
AcDbLine
 10
79.283039
 20
44.438724
 30
0.0
 11
79.291327
 21
44.406039
 31
0.0
  0
LINE
  5
1C6
330
1A7
100
AcDbEntity
  8
0
  6
CONTINUOUS
 62
     7
100
AcDbLine
 10
79.291327
 20
44.406039
 30
0.0
 11
79.299464
 21
44.373316
 31
0.0
  0
LINE
  5
1C7
330
1A7
100
AcDbEntity
  8
0
  6
CONTINUOUS
 62
     7
100
AcDbLine
 10
79.299464
 20
44.373316
 30
0.0
 11
79.307446
 21
44.340555
 31
0.0
  0
LINE
  5
1C8
330
1A7
100
AcDbEntity
  8
0
  6
CONTINUOUS
 62
     7
100
AcDbLine
 10
79.307446
 20
44.340555
 30
0.0
 11
79.315274
 21
44.307756
 31
0.0
  0
LINE
  5
1C9
330
1A7
100
AcDbEntity
  8
0
  6
CONTINUOUS
 62
     7
100
AcDbLine
 10
79.315274
 20
44.307756
 30
0.0
 11
79.322946
 21
44.274921
 31
0.0
  0
LINE
  5
1CA
330
1A7
100
AcDbEntity
  8
0
  6
CONTINUOUS
 62
     7
100
AcDbLine
 10
79.322946
 20
44.274921
 30
0.0
 11
79.330461
 21
44.24205
 31
0.0
  0
LINE
  5
1CB
330
1A7
100
AcDbEntity
  8
0
  6
CONTINUOUS
 62
     7
100
AcDbLine
 10
79.330461
 20
44.24205
 30
0.0
 11
79.337817
 21
44.209145
 31
0.0
  0
LINE
  5
1CC
330
1A7
100
AcDbEntity
  8
0
  6
CONTINUOUS
 62
     7
100
AcDbLine
 10
79.337817
 20
44.209145
 30
0.0
 11
79.345013
 21
44.176206
 31
0.0
  0
LINE
  5
1CD
330
1A7
100
AcDbEntity
  8
0
  6
CONTINUOUS
 62
     7
100
AcDbLine
 10
79.345013
 20
44.176206
 30
0.0
 11
79.352049
 21
44.143235
 31
0.0
  0
LINE
  5
1CE
330
1A7
100
AcDbEntity
  8
0
  6
CONTINUOUS
 62
     7
100
AcDbLine
 10
79.352049
 20
44.143235
 30
0.0
 11
79.358922
 21
44.110233
 31
0.0
  0
LINE
  5
1CF
330
1A7
100
AcDbEntity
  8
0
  6
CONTINUOUS
 62
     7
100
AcDbLine
 10
79.358922
 20
44.110233
 30
0.0
 11
79.365632
 21
44.0772
 31
0.0
  0
LINE
  5
1D0
330
1A7
100
AcDbEntity
  8
0
  6
CONTINUOUS
 62
     7
100
AcDbLine
 10
79.365632
 20
44.0772
 30
0.0
 11
79.372177
 21
44.044137
 31
0.0
  0
LINE
  5
1D1
330
1A7
100
AcDbEntity
  8
0
  6
CONTINUOUS
 62
     7
100
AcDbLine
 10
79.372177
 20
44.044137
 30
0.0
 11
79.378556
 21
44.011046
 31
0.0
  0
LINE
  5
1D2
330
1A7
100
AcDbEntity
  8
0
  6
CONTINUOUS
 62
     7
100
AcDbLine
 10
79.378556
 20
44.011046
 30
0.0
 11
79.384768
 21
43.977926
 31
0.0
  0
LINE
  5
1D3
330
1A7
100
AcDbEntity
  8
0
  6
CONTINUOUS
 62
     7
100
AcDbLine
 10
79.384768
 20
43.977926
 30
0.0
 11
79.390811
 21
43.944781
 31
0.0
  0
LINE
  5
1D4
330
1A7
100
AcDbEntity
  8
0
  6
CONTINUOUS
 62
     7
100
AcDbLine
 10
79.390811
 20
43.944781
 30
0.0
 11
79.396685
 21
43.911609
 31
0.0
  0
LINE
  5
1D5
330
1A7
100
AcDbEntity
  8
0
  6
CONTINUOUS
 62
     7
100
AcDbLine
 10
79.396685
 20
43.911609
 30
0.0
 11
79.402388
 21
43.878413
 31
0.0
  0
LINE
  5
1D6
330
1A7
100
AcDbEntity
  8
0
  6
CONTINUOUS
 62
     7
100
AcDbLine
 10
79.402388
 20
43.878413
 30
0.0
 11
79.407919
 21
43.845193
 31
0.0
  0
LINE
  5
1D7
330
1A7
100
AcDbEntity
  8
0
  6
CONTINUOUS
 62
     7
100
AcDbLine
 10
79.407919
 20
43.845193
 30
0.0
 11
79.413277
 21
43.81195
 31
0.0
  0
LINE
  5
1D8
330
1A7
100
AcDbEntity
  8
0
  6
CONTINUOUS
 62
     7
100
AcDbLine
 10
79.413277
 20
43.81195
 30
0.0
 11
79.41846
 21
43.778685
 31
0.0
  0
LINE
  5
1D9
330
1A7
100
AcDbEntity
  8
0
  6
CONTINUOUS
 62
     7
100
AcDbLine
 10
79.41846
 20
43.778685
 30
0.0
 11
79.423467
 21
43.745399
 31
0.0
  0
LINE
  5
1DA
330
1A7
100
AcDbEntity
  8
0
  6
CONTINUOUS
 62
     7
100
AcDbLine
 10
79.423467
 20
43.745399
 30
0.0
 11
79.428297
 21
43.712094
 31
0.0
  0
LINE
  5
1DB
330
1A7
100
AcDbEntity
  8
0
  6
CONTINUOUS
 62
     7
100
AcDbLine
 10
79.428297
 20
43.712094
 30
0.0
 11
79.432949
 21
43.678769
 31
0.0
  0
LINE
  5
1DC
330
1A7
100
AcDbEntity
  8
0
  6
CONTINUOUS
 62
     7
100
AcDbLine
 10
79.432949
 20
43.678769
 30
0.0
 11
79.437421
 21
43.645426
 31
0.0
  0
LINE
  5
1DD
330
1A7
100
AcDbEntity
  8
0
  6
CONTINUOUS
 62
     7
100
AcDbLine
 10
79.437421
 20
43.645426
 30
0.0
 11
79.441713
 21
43.612067
 31
0.0
  0
LINE
  5
1DE
330
1A7
100
AcDbEntity
  8
0
  6
CONTINUOUS
 62
     7
100
AcDbLine
 10
79.441713
 20
43.612067
 30
0.0
 11
79.445822
 21
43.578691
 31
0.0
  0
LINE
  5
1DF
330
1A7
100
AcDbEntity
  8
0
  6
CONTINUOUS
 62
     7
100
AcDbLine
 10
79.445822
 20
43.578691
 30
0.0
 11
79.449748
 21
43.5453
 31
0.0
  0
LINE
  5
1E0
330
1A7
100
AcDbEntity
  8
0
  6
CONTINUOUS
 62
     7
100
AcDbLine
 10
79.449748
 20
43.5453
 30
0.0
 11
79.45349
 21
43.511895
 31
0.0
  0
LINE
  5
1E1
330
1A7
100
AcDbEntity
  8
0
  6
CONTINUOUS
 62
     7
100
AcDbLine
 10
79.45349
 20
43.511895
 30
0.0
 11
79.457046
 21
43.478476
 31
0.0
  0
LINE
  5
1E2
330
1A7
100
AcDbEntity
  8
0
  6
CONTINUOUS
 62
     7
100
AcDbLine
 10
79.457046
 20
43.478476
 30
0.0
 11
79.460415
 21
43.445046
 31
0.0
  0
LINE
  5
1E3
330
1A7
100
AcDbEntity
  8
0
  6
CONTINUOUS
 62
     7
100
AcDbLine
 10
79.460415
 20
43.445046
 30
0.0
 11
79.463596
 21
43.411604
 31
0.0
  0
LINE
  5
1E4
330
1A7
100
AcDbEntity
  8
0
  6
CONTINUOUS
 62
     7
100
AcDbLine
 10
79.463596
 20
43.411604
 30
0.0
 11
79.466588
 21
43.378152
 31
0.0
  0
LINE
  5
1E5
330
1A7
100
AcDbEntity
  8
0
  6
CONTINUOUS
 62
     7
100
AcDbLine
 10
79.466588
 20
43.378152
 30
0.0
 11
79.469388
 21
43.34469
 31
0.0
  0
LINE
  5
1E6
330
1A7
100
AcDbEntity
  8
0
  6
CONTINUOUS
 62
     7
100
AcDbLine
 10
79.469388
 20
43.34469
 30
0.0
 11
79.471997
 21
43.31122
 31
0.0
  0
LINE
  5
1E7
330
1A7
100
AcDbEntity
  8
0
  6
CONTINUOUS
 62
     7
100
AcDbLine
 10
79.471997
 20
43.31122
 30
0.0
 11
79.474413
 21
43.277743
 31
0.0
  0
LINE
  5
1E8
330
1A7
100
AcDbEntity
  8
0
  6
CONTINUOUS
 62
     7
100
AcDbLine
 10
79.474413
 20
43.277743
 30
0.0
 11
79.476634
 21
43.244259
 31
0.0
  0
LINE
  5
1E9
330
1A7
100
AcDbEntity
  8
0
  6
CONTINUOUS
 62
     7
100
AcDbLine
 10
79.476634
 20
43.244259
 30
0.0
 11
79.47866
 21
43.21077
 31
0.0
  0
LINE
  5
1EA
330
1A7
100
AcDbEntity
  8
0
  6
CONTINUOUS
 62
     7
100
AcDbLine
 10
79.47866
 20
43.21077
 30
0.0
 11
79.480489
 21
43.177276
 31
0.0
  0
LINE
  5
1EB
330
1A7
100
AcDbEntity
  8
0
  6
CONTINUOUS
 62
     7
100
AcDbLine
 10
79.480489
 20
43.177276
 30
0.0
 11
79.48212
 21
43.143779
 31
0.0
  0
LINE
  5
1EC
330
1A7
100
AcDbEntity
  8
0
  6
CONTINUOUS
 62
     7
100
AcDbLine
 10
79.48212
 20
43.143779
 30
0.0
 11
79.483551
 21
43.110279
 31
0.0
  0
LINE
  5
1ED
330
1A7
100
AcDbEntity
  8
0
  6
CONTINUOUS
 62
     7
100
AcDbLine
 10
79.483551
 20
43.110279
 30
0.0
 11
79.484782
 21
43.076778
 31
0.0
  0
LINE
  5
1EE
330
1A7
100
AcDbEntity
  8
0
  6
CONTINUOUS
 62
     7
100
AcDbLine
 10
79.484782
 20
43.076778
 30
0.0
 11
79.485811
 21
43.043275
 31
0.0
  0
LINE
  5
1EF
330
1A7
100
AcDbEntity
  8
0
  6
CONTINUOUS
 62
     7
100
AcDbLine
 10
79.485811
 20
43.043275
 30
0.0
 11
79.486955
 21
42.994956
 31
0.0
  0
LINE
  5
1F0
330
1A7
100
AcDbEntity
  8
0
  6
CONTINUOUS
 62
     7
100
AcDbLine
 10
79.486955
 20
42.994956
 30
0.0
 11
79.487783
 21
42.946637
 31
0.0
  0
LINE
  5
1F1
330
1A7
100
AcDbEntity
  8
0
  6
CONTINUOUS
 62
     7
100
AcDbLine
 10
79.487783
 20
42.946637
 30
0.0
 11
79.488399
 21
42.898319
 31
0.0
  0
LINE
  5
1F2
330
1A7
100
AcDbEntity
  8
0
  6
CONTINUOUS
 62
     7
100
AcDbLine
 10
79.488399
 20
42.898319
 30
0.0
 11
79.48891
 21
42.85
 31
0.0
  0
ENDBLK
  5
1A9
330
1A7
100
AcDbEntity
  8
0
100
AcDbBlockEnd
  0
BLOCK
  5
1F9
330
1F8
100
AcDbEntity
  8
0
100
AcDbBlockBegin
  2
BLKF014
 70
     0
 71
     0
 10
0.0
 20
0.0
 30
0.0
  3
BLKF014
  1

  0
LINE
  5
1FC
330
1F8
100
AcDbEntity
  8
0
  6
CONTINUOUS
 62
     7
100
AcDbLine
 10
79.48891
 20
42.85
 30
0.0
 11
79.473148
 21
42.64322
 31
0.0
  0
LINE
  5
1FD
330
1F8
100
AcDbEntity
  8
0
  6
CONTINUOUS
 62
     7
100
AcDbLine
 10
79.473148
 20
42.64322
 30
0.0
 11
79.464923
 21
42.539907
 31
0.0
  0
LINE
  5
1FE
330
1F8
100
AcDbEntity
  8
0
  6
CONTINUOUS
 62
     7
100
AcDbLine
 10
79.464923
 20
42.539907
 30
0.0
 11
79.456287
 21
42.436688
 31
0.0
  0
LINE
  5
1FF
330
1F8
100
AcDbEntity
  8
0
  6
CONTINUOUS
 62
     7
100
AcDbLine
 10
79.456287
 20
42.436688
 30
0.0
 11
79.447103
 21
42.333595
 31
0.0
  0
LINE
  5
200
330
1F8
100
AcDbEntity
  8
0
  6
CONTINUOUS
 62
     7
100
AcDbLine
 10
79.447103
 20
42.333595
 30
0.0
 11
79.437231
 21
42.230657
 31
0.0
  0
LINE
  5
201
330
1F8
100
AcDbEntity
  8
0
  6
CONTINUOUS
 62
     7
100
AcDbLine
 10
79.437231
 20
42.230657
 30
0.0
 11
79.426537
 21
42.127906
 31
0.0
  0
LINE
  5
202
330
1F8
100
AcDbEntity
  8
0
  6
CONTINUOUS
 62
     7
100
AcDbLine
 10
79.426537
 20
42.127906
 30
0.0
 11
79.414882
 21
42.025373
 31
0.0
  0
LINE
  5
203
330
1F8
100
AcDbEntity
  8
0
  6
CONTINUOUS
 62
     7
100
AcDbLine
 10
79.414882
 20
42.025373
 30
0.0
 11
79.402129
 21
41.923091
 31
0.0
  0
LINE
  5
204
330
1F8
100
AcDbEntity
  8
0
  6
CONTINUOUS
 62
     7
100
AcDbLine
 10
79.402129
 20
41.923091
 30
0.0
 11
79.388141
 21
41.821089
 31
0.0
  0
LINE
  5
205
330
1F8
100
AcDbEntity
  8
0
  6
CONTINUOUS
 62
     7
100
AcDbLine
 10
79.388141
 20
41.821089
 30
0.0
 11
79.380641
 21
41.770203
 31
0.0
  0
LINE
  5
206
330
1F8
100
AcDbEntity
  8
0
  6
CONTINUOUS
 62
     7
100
AcDbLine
 10
79.380641
 20
41.770203
 30
0.0
 11
79.372781
 21
41.719399
 31
0.0
  0
LINE
  5
207
330
1F8
100
AcDbEntity
  8
0
  6
CONTINUOUS
 62
     7
100
AcDbLine
 10
79.372781
 20
41.719399
 30
0.0
 11
79.364544
 21
41.668681
 31
0.0
  0
LINE
  5
208
330
1F8
100
AcDbEntity
  8
0
  6
CONTINUOUS
 62
     7
100
AcDbLine
 10
79.364544
 20
41.668681
 30
0.0
 11
79.355912
 21
41.618052
 31
0.0
  0
LINE
  5
209
330
1F8
100
AcDbEntity
  8
0
  6
CONTINUOUS
 62
     7
100
AcDbLine
 10
79.355912
 20
41.618052
 30
0.0
 11
79.346868
 21
41.567517
 31
0.0
  0
LINE
  5
20A
330
1F8
100
AcDbEntity
  8
0
  6
CONTINUOUS
 62
     7
100
AcDbLine
 10
79.346868
 20
41.567517
 30
0.0
 11
79.337395
 21
41.51708
 31
0.0
  0
LINE
  5
20B
330
1F8
100
AcDbEntity
  8
0
  6
CONTINUOUS
 62
     7
100
AcDbLine
 10
79.337395
 20
41.51708
 30
0.0
 11
79.327477
 21
41.466744
 31
0.0
  0
LINE
  5
20C
330
1F8
100
AcDbEntity
  8
0
  6
CONTINUOUS
 62
     7
100
AcDbLine
 10
79.327477
 20
41.466744
 30
0.0
 11
79.317095
 21
41.416513
 31
0.0
  0
LINE
  5
20D
330
1F8
100
AcDbEntity
  8
0
  6
CONTINUOUS
 62
     7
100
AcDbLine
 10
79.317095
 20
41.416513
 30
0.0
 11
79.306233
 21
41.366391
 31
0.0
  0
LINE
  5
20E
330
1F8
100
AcDbEntity
  8
0
  6
CONTINUOUS
 62
     7
100
AcDbLine
 10
79.306233
 20
41.366391
 30
0.0
 11
79.294873
 21
41.316383
 31
0.0
  0
LINE
  5
20F
330
1F8
100
AcDbEntity
  8
0
  6
CONTINUOUS
 62
     7
100
AcDbLine
 10
79.294873
 20
41.316383
 30
0.0
 11
79.282999
 21
41.266491
 31
0.0
  0
LINE
  5
210
330
1F8
100
AcDbEntity
  8
0
  6
CONTINUOUS
 62
     7
100
AcDbLine
 10
79.282999
 20
41.266491
 30
0.0
 11
79.270593
 21
41.216721
 31
0.0
  0
LINE
  5
211
330
1F8
100
AcDbEntity
  8
0
  6
CONTINUOUS
 62
     7
100
AcDbLine
 10
79.270593
 20
41.216721
 30
0.0
 11
79.256242
 21
41.161811
 31
0.0
  0
LINE
  5
212
330
1F8
100
AcDbEntity
  8
0
  6
CONTINUOUS
 62
     7
100
AcDbLine
 10
79.256242
 20
41.161811
 30
0.0
 11
79.24126
 21
41.107045
 31
0.0
  0
LINE
  5
213
330
1F8
100
AcDbEntity
  8
0
  6
CONTINUOUS
 62
     7
100
AcDbLine
 10
79.24126
 20
41.107045
 30
0.0
 11
79.225691
 21
41.052412
 31
0.0
  0
LINE
  5
214
330
1F8
100
AcDbEntity
  8
0
  6
CONTINUOUS
 62
     7
100
AcDbLine
 10
79.225691
 20
41.052412
 30
0.0
 11
79.209577
 21
40.997903
 31
0.0
  0
LINE
  5
215
330
1F8
100
AcDbEntity
  8
0
  6
CONTINUOUS
 62
     7
100
AcDbLine
 10
79.209577
 20
40.997903
 30
0.0
 11
79.192958
 21
40.943509
 31
0.0
  0
LINE
  5
216
330
1F8
100
AcDbEntity
  8
0
  6
CONTINUOUS
 62
     7
100
AcDbLine
 10
79.192958
 20
40.943509
 30
0.0
 11
79.175878
 21
40.889219
 31
0.0
  0
LINE
  5
217
330
1F8
100
AcDbEntity
  8
0
  6
CONTINUOUS
 62
     7
100
AcDbLine
 10
79.175878
 20
40.889219
 30
0.0
 11
79.158378
 21
40.835025
 31
0.0
  0
LINE
  5
218
330
1F8
100
AcDbEntity
  8
0
  6
CONTINUOUS
 62
     7
100
AcDbLine
 10
79.158378
 20
40.835025
 30
0.0
 11
79.140501
 21
40.780917
 31
0.0
  0
LINE
  5
219
330
1F8
100
AcDbEntity
  8
0
  6
CONTINUOUS
 62
     7
100
AcDbLine
 10
79.140501
 20
40.780917
 30
0.0
 11
79.10378
 21
40.672921
 31
0.0
  0
LINE
  5
21A
330
1F8
100
AcDbEntity
  8
0
  6
CONTINUOUS
 62
     7
100
AcDbLine
 10
79.10378
 20
40.672921
 30
0.0
 11
79.066052
 21
40.565153
 31
0.0
  0
LINE
  5
21B
330
1F8
100
AcDbEntity
  8
0
  6
CONTINUOUS
 62
     7
100
AcDbLine
 10
79.066052
 20
40.565153
 30
0.0
 11
79.027652
 21
40.457538
 31
0.0
  0
LINE
  5
21C
330
1F8
100
AcDbEntity
  8
0
  6
CONTINUOUS
 62
     7
100
AcDbLine
 10
79.027652
 20
40.457538
 30
0.0
 11
78.988917
 21
40.35
 31
0.0
  0
ENDBLK
  5
1FA
330
1F8
100
AcDbEntity
  8
0
100
AcDbBlockEnd
  0
BLOCK
  5
21F
330
21E
100
AcDbEntity
  8
0
100
AcDbBlockBegin
  2
BLKF015
 70
     0
 71
     0
 10
0.0
 20
0.0
 30
0.0
  3
BLKF015
  1

  0
LINE
  5
222
330
21E
100
AcDbEntity
  8
0
  6
CONTINUOUS
 62
     7
100
AcDbLine
 10
78.988917
 20
38.903847
 30
0.0
 11
79.011817
 21
38.867559
 31
0.0
  0
LINE
  5
223
330
21E
100
AcDbEntity
  8
0
  6
CONTINUOUS
 62
     7
100
AcDbLine
 10
79.011817
 20
38.867559
 30
0.0
 11
79.034675
 21
38.831262
 31
0.0
  0
LINE
  5
224
330
21E
100
AcDbEntity
  8
0
  6
CONTINUOUS
 62
     7
100
AcDbLine
 10
79.034675
 20
38.831262
 30
0.0
 11
79.057447
 21
38.794947
 31
0.0
  0
LINE
  5
225
330
21E
100
AcDbEntity
  8
0
  6
CONTINUOUS
 62
     7
100
AcDbLine
 10
79.057447
 20
38.794947
 30
0.0
 11
79.08009
 21
38.758606
 31
0.0
  0
LINE
  5
226
330
21E
100
AcDbEntity
  8
0
  6
CONTINUOUS
 62
     7
100
AcDbLine
 10
79.08009
 20
38.758606
 30
0.0
 11
79.091351
 21
38.740422
 31
0.0
  0
LINE
  5
227
330
21E
100
AcDbEntity
  8
0
  6
CONTINUOUS
 62
     7
100
AcDbLine
 10
79.091351
 20
38.740422
 30
0.0
 11
79.102563
 21
38.722229
 31
0.0
  0
LINE
  5
228
330
21E
100
AcDbEntity
  8
0
  6
CONTINUOUS
 62
     7
100
AcDbLine
 10
79.102563
 20
38.722229
 30
0.0
 11
79.113722
 21
38.704025
 31
0.0
  0
LINE
  5
229
330
21E
100
AcDbEntity
  8
0
  6
CONTINUOUS
 62
     7
100
AcDbLine
 10
79.113722
 20
38.704025
 30
0.0
 11
79.124822
 21
38.685809
 31
0.0
  0
LINE
  5
22A
330
21E
100
AcDbEntity
  8
0
  6
CONTINUOUS
 62
     7
100
AcDbLine
 10
79.124822
 20
38.685809
 30
0.0
 11
79.135858
 21
38.66758
 31
0.0
  0
LINE
  5
22B
330
21E
100
AcDbEntity
  8
0
  6
CONTINUOUS
 62
     7
100
AcDbLine
 10
79.135858
 20
38.66758
 30
0.0
 11
79.146824
 21
38.649336
 31
0.0
  0
LINE
  5
22C
330
21E
100
AcDbEntity
  8
0
  6
CONTINUOUS
 62
     7
100
AcDbLine
 10
79.146824
 20
38.649336
 30
0.0
 11
79.157715
 21
38.631077
 31
0.0
  0
LINE
  5
22D
330
21E
100
AcDbEntity
  8
0
  6
CONTINUOUS
 62
     7
100
AcDbLine
 10
79.157715
 20
38.631077
 30
0.0
 11
79.168527
 21
38.612801
 31
0.0
  0
LINE
  5
22E
330
21E
100
AcDbEntity
  8
0
  6
CONTINUOUS
 62
     7
100
AcDbLine
 10
79.168527
 20
38.612801
 30
0.0
 11
79.179252
 21
38.594508
 31
0.0
  0
LINE
  5
22F
330
21E
100
AcDbEntity
  8
0
  6
CONTINUOUS
 62
     7
100
AcDbLine
 10
79.179252
 20
38.594508
 30
0.0
 11
79.189887
 21
38.576197
 31
0.0
  0
LINE
  5
230
330
21E
100
AcDbEntity
  8
0
  6
CONTINUOUS
 62
     7
100
AcDbLine
 10
79.189887
 20
38.576197
 30
0.0
 11
79.200426
 21
38.557865
 31
0.0
  0
LINE
  5
231
330
21E
100
AcDbEntity
  8
0
  6
CONTINUOUS
 62
     7
100
AcDbLine
 10
79.200426
 20
38.557865
 30
0.0
 11
79.210863
 21
38.539513
 31
0.0
  0
LINE
  5
232
330
21E
100
AcDbEntity
  8
0
  6
CONTINUOUS
 62
     7
100
AcDbLine
 10
79.210863
 20
38.539513
 30
0.0
 11
79.221193
 21
38.521138
 31
0.0
  0
LINE
  5
233
330
21E
100
AcDbEntity
  8
0
  6
CONTINUOUS
 62
     7
100
AcDbLine
 10
79.221193
 20
38.521138
 30
0.0
 11
79.231411
 21
38.502741
 31
0.0
  0
LINE
  5
234
330
21E
100
AcDbEntity
  8
0
  6
CONTINUOUS
 62
     7
100
AcDbLine
 10
79.231411
 20
38.502741
 30
0.0
 11
79.241511
 21
38.484319
 31
0.0
  0
LINE
  5
235
330
21E
100
AcDbEntity
  8
0
  6
CONTINUOUS
 62
     7
100
AcDbLine
 10
79.241511
 20
38.484319
 30
0.0
 11
79.251488
 21
38.465873
 31
0.0
  0
LINE
  5
236
330
21E
100
AcDbEntity
  8
0
  6
CONTINUOUS
 62
     7
100
AcDbLine
 10
79.251488
 20
38.465873
 30
0.0
 11
79.261337
 21
38.447399
 31
0.0
  0
LINE
  5
237
330
21E
100
AcDbEntity
  8
0
  6
CONTINUOUS
 62
     7
100
AcDbLine
 10
79.261337
 20
38.447399
 30
0.0
 11
79.271052
 21
38.428899
 31
0.0
  0
LINE
  5
238
330
21E
100
AcDbEntity
  8
0
  6
CONTINUOUS
 62
     7
100
AcDbLine
 10
79.271052
 20
38.428899
 30
0.0
 11
79.280628
 21
38.41037
 31
0.0
  0
LINE
  5
239
330
21E
100
AcDbEntity
  8
0
  6
CONTINUOUS
 62
     7
100
AcDbLine
 10
79.280628
 20
38.41037
 30
0.0
 11
79.29006
 21
38.391811
 31
0.0
  0
LINE
  5
23A
330
21E
100
AcDbEntity
  8
0
  6
CONTINUOUS
 62
     7
100
AcDbLine
 10
79.29006
 20
38.391811
 30
0.0
 11
79.299342
 21
38.373221
 31
0.0
  0
LINE
  5
23B
330
21E
100
AcDbEntity
  8
0
  6
CONTINUOUS
 62
     7
100
AcDbLine
 10
79.299342
 20
38.373221
 30
0.0
 11
79.308469
 21
38.3546
 31
0.0
  0
LINE
  5
23C
330
21E
100
AcDbEntity
  8
0
  6
CONTINUOUS
 62
     7
100
AcDbLine
 10
79.308469
 20
38.3546
 30
0.0
 11
79.317436
 21
38.335945
 31
0.0
  0
LINE
  5
23D
330
21E
100
AcDbEntity
  8
0
  6
CONTINUOUS
 62
     7
100
AcDbLine
 10
79.317436
 20
38.335945
 30
0.0
 11
79.326237
 21
38.317257
 31
0.0
  0
LINE
  5
23E
330
21E
100
AcDbEntity
  8
0
  6
CONTINUOUS
 62
     7
100
AcDbLine
 10
79.326237
 20
38.317257
 30
0.0
 11
79.334867
 21
38.298533
 31
0.0
  0
LINE
  5
23F
330
21E
100
AcDbEntity
  8
0
  6
CONTINUOUS
 62
     7
100
AcDbLine
 10
79.334867
 20
38.298533
 30
0.0
 11
79.34332
 21
38.279773
 31
0.0
  0
LINE
  5
240
330
21E
100
AcDbEntity
  8
0
  6
CONTINUOUS
 62
     7
100
AcDbLine
 10
79.34332
 20
38.279773
 30
0.0
 11
79.351592
 21
38.260976
 31
0.0
  0
LINE
  5
241
330
21E
100
AcDbEntity
  8
0
  6
CONTINUOUS
 62
     7
100
AcDbLine
 10
79.351592
 20
38.260976
 30
0.0
 11
79.359676
 21
38.242141
 31
0.0
  0
LINE
  5
242
330
21E
100
AcDbEntity
  8
0
  6
CONTINUOUS
 62
     7
100
AcDbLine
 10
79.359676
 20
38.242141
 30
0.0
 11
79.367568
 21
38.223265
 31
0.0
  0
LINE
  5
243
330
21E
100
AcDbEntity
  8
0
  6
CONTINUOUS
 62
     7
100
AcDbLine
 10
79.367568
 20
38.223265
 30
0.0
 11
79.375262
 21
38.20435
 31
0.0
  0
LINE
  5
244
330
21E
100
AcDbEntity
  8
0
  6
CONTINUOUS
 62
     7
100
AcDbLine
 10
79.375262
 20
38.20435
 30
0.0
 11
79.382753
 21
38.185392
 31
0.0
  0
LINE
  5
245
330
21E
100
AcDbEntity
  8
0
  6
CONTINUOUS
 62
     7
100
AcDbLine
 10
79.382753
 20
38.185392
 30
0.0
 11
79.390036
 21
38.166392
 31
0.0
  0
LINE
  5
246
330
21E
100
AcDbEntity
  8
0
  6
CONTINUOUS
 62
     7
100
AcDbLine
 10
79.390036
 20
38.166392
 30
0.0
 11
79.397105
 21
38.147347
 31
0.0
  0
LINE
  5
247
330
21E
100
AcDbEntity
  8
0
  6
CONTINUOUS
 62
     7
100
AcDbLine
 10
79.397105
 20
38.147347
 30
0.0
 11
79.403954
 21
38.128258
 31
0.0
  0
LINE
  5
248
330
21E
100
AcDbEntity
  8
0
  6
CONTINUOUS
 62
     7
100
AcDbLine
 10
79.403954
 20
38.128258
 30
0.0
 11
79.410579
 21
38.109123
 31
0.0
  0
LINE
  5
249
330
21E
100
AcDbEntity
  8
0
  6
CONTINUOUS
 62
     7
100
AcDbLine
 10
79.410579
 20
38.109123
 30
0.0
 11
79.416974
 21
38.08994
 31
0.0
  0
LINE
  5
24A
330
21E
100
AcDbEntity
  8
0
  6
CONTINUOUS
 62
     7
100
AcDbLine
 10
79.416974
 20
38.08994
 30
0.0
 11
79.423134
 21
38.070709
 31
0.0
  0
LINE
  5
24B
330
21E
100
AcDbEntity
  8
0
  6
CONTINUOUS
 62
     7
100
AcDbLine
 10
79.423134
 20
38.070709
 30
0.0
 11
79.429053
 21
38.051428
 31
0.0
  0
LINE
  5
24C
330
21E
100
AcDbEntity
  8
0
  6
CONTINUOUS
 62
     7
100
AcDbLine
 10
79.429053
 20
38.051428
 30
0.0
 11
79.434726
 21
38.032097
 31
0.0
  0
LINE
  5
24D
330
21E
100
AcDbEntity
  8
0
  6
CONTINUOUS
 62
     7
100
AcDbLine
 10
79.434726
 20
38.032097
 30
0.0
 11
79.440148
 21
38.012715
 31
0.0
  0
LINE
  5
24E
330
21E
100
AcDbEntity
  8
0
  6
CONTINUOUS
 62
     7
100
AcDbLine
 10
79.440148
 20
38.012715
 30
0.0
 11
79.445313
 21
37.99328
 31
0.0
  0
LINE
  5
24F
330
21E
100
AcDbEntity
  8
0
  6
CONTINUOUS
 62
     7
100
AcDbLine
 10
79.445313
 20
37.99328
 30
0.0
 11
79.450216
 21
37.97379
 31
0.0
  0
LINE
  5
250
330
21E
100
AcDbEntity
  8
0
  6
CONTINUOUS
 62
     7
100
AcDbLine
 10
79.450216
 20
37.97379
 30
0.0
 11
79.454852
 21
37.954246
 31
0.0
  0
LINE
  5
251
330
21E
100
AcDbEntity
  8
0
  6
CONTINUOUS
 62
     7
100
AcDbLine
 10
79.454852
 20
37.954246
 30
0.0
 11
79.459215
 21
37.934646
 31
0.0
  0
LINE
  5
252
330
21E
100
AcDbEntity
  8
0
  6
CONTINUOUS
 62
     7
100
AcDbLine
 10
79.459215
 20
37.934646
 30
0.0
 11
79.4633
 21
37.914989
 31
0.0
  0
LINE
  5
253
330
21E
100
AcDbEntity
  8
0
  6
CONTINUOUS
 62
     7
100
AcDbLine
 10
79.4633
 20
37.914989
 30
0.0
 11
79.467102
 21
37.895274
 31
0.0
  0
LINE
  5
254
330
21E
100
AcDbEntity
  8
0
  6
CONTINUOUS
 62
     7
100
AcDbLine
 10
79.467102
 20
37.895274
 30
0.0
 11
79.470615
 21
37.875499
 31
0.0
  0
LINE
  5
255
330
21E
100
AcDbEntity
  8
0
  6
CONTINUOUS
 62
     7
100
AcDbLine
 10
79.470615
 20
37.875499
 30
0.0
 11
79.473834
 21
37.855664
 31
0.0
  0
LINE
  5
256
330
21E
100
AcDbEntity
  8
0
  6
CONTINUOUS
 62
     7
100
AcDbLine
 10
79.473834
 20
37.855664
 30
0.0
 11
79.476754
 21
37.835767
 31
0.0
  0
LINE
  5
257
330
21E
100
AcDbEntity
  8
0
  6
CONTINUOUS
 62
     7
100
AcDbLine
 10
79.476754
 20
37.835767
 30
0.0
 11
79.479369
 21
37.815808
 31
0.0
  0
LINE
  5
258
330
21E
100
AcDbEntity
  8
0
  6
CONTINUOUS
 62
     7
100
AcDbLine
 10
79.479369
 20
37.815808
 30
0.0
 11
79.481674
 21
37.795785
 31
0.0
  0
LINE
  5
259
330
21E
100
AcDbEntity
  8
0
  6
CONTINUOUS
 62
     7
100
AcDbLine
 10
79.481674
 20
37.795785
 30
0.0
 11
79.482708
 21
37.78575
 31
0.0
  0
LINE
  5
25A
330
21E
100
AcDbEntity
  8
0
  6
CONTINUOUS
 62
     7
100
AcDbLine
 10
79.482708
 20
37.78575
 30
0.0
 11
79.483663
 21
37.775698
 31
0.0
  0
LINE
  5
25B
330
21E
100
AcDbEntity
  8
0
  6
CONTINUOUS
 62
     7
100
AcDbLine
 10
79.483663
 20
37.775698
 30
0.0
 11
79.484538
 21
37.765629
 31
0.0
  0
LINE
  5
25C
330
21E
100
AcDbEntity
  8
0
  6
CONTINUOUS
 62
     7
100
AcDbLine
 10
79.484538
 20
37.765629
 30
0.0
 11
79.485332
 21
37.755544
 31
0.0
  0
LINE
  5
25D
330
21E
100
AcDbEntity
  8
0
  6
CONTINUOUS
 62
     7
100
AcDbLine
 10
79.485332
 20
37.755544
 30
0.0
 11
79.486044
 21
37.745442
 31
0.0
  0
LINE
  5
25E
330
21E
100
AcDbEntity
  8
0
  6
CONTINUOUS
 62
     7
100
AcDbLine
 10
79.486044
 20
37.745442
 30
0.0
 11
79.486674
 21
37.735323
 31
0.0
  0
LINE
  5
25F
330
21E
100
AcDbEntity
  8
0
  6
CONTINUOUS
 62
     7
100
AcDbLine
 10
79.486674
 20
37.735323
 30
0.0
 11
79.487221
 21
37.725188
 31
0.0
  0
LINE
  5
260
330
21E
100
AcDbEntity
  8
0
  6
CONTINUOUS
 62
     7
100
AcDbLine
 10
79.487221
 20
37.725188
 30
0.0
 11
79.487685
 21
37.715035
 31
0.0
  0
LINE
  5
261
330
21E
100
AcDbEntity
  8
0
  6
CONTINUOUS
 62
     7
100
AcDbLine
 10
79.487685
 20
37.715035
 30
0.0
 11
79.488064
 21
37.704865
 31
0.0
  0
LINE
  5
262
330
21E
100
AcDbEntity
  8
0
  6
CONTINUOUS
 62
     7
100
AcDbLine
 10
79.488064
 20
37.704865
 30
0.0
 11
79.488359
 21
37.694677
 31
0.0
  0
LINE
  5
263
330
21E
100
AcDbEntity
  8
0
  6
CONTINUOUS
 62
     7
100
AcDbLine
 10
79.488359
 20
37.694677
 30
0.0
 11
79.48872
 21
37.67428
 31
0.0
  0
LINE
  5
264
330
21E
100
AcDbEntity
  8
0
  6
CONTINUOUS
 62
     7
100
AcDbLine
 10
79.48872
 20
37.67428
 30
0.0
 11
79.48891
 21
37.653848
 31
0.0
  0
ENDBLK
  5
220
330
21E
100
AcDbEntity
  8
0
100
AcDbBlockEnd
  0
BLOCK
  5
26C
330
26B
100
AcDbEntity
  8
0
100
AcDbBlockBegin
  2
BLKF016
 70
     0
 71
     0
 10
0.0
 20
0.0
 30
0.0
  3
BLKF016
  1

  0
LINE
  5
26F
330
26B
100
AcDbEntity
  8
0
  6
CONTINUOUS
 62
     7
100
AcDbLine
 10
78.988917
 20
49.296152
 30
0.0
 11
79.011817
 21
49.259864
 31
0.0
  0
LINE
  5
270
330
26B
100
AcDbEntity
  8
0
  6
CONTINUOUS
 62
     7
100
AcDbLine
 10
79.011817
 20
49.259864
 30
0.0
 11
79.034675
 21
49.223567
 31
0.0
  0
LINE
  5
271
330
26B
100
AcDbEntity
  8
0
  6
CONTINUOUS
 62
     7
100
AcDbLine
 10
79.034675
 20
49.223567
 30
0.0
 11
79.057447
 21
49.187252
 31
0.0
  0
LINE
  5
272
330
26B
100
AcDbEntity
  8
0
  6
CONTINUOUS
 62
     7
100
AcDbLine
 10
79.057447
 20
49.187252
 30
0.0
 11
79.08009
 21
49.150911
 31
0.0
  0
LINE
  5
273
330
26B
100
AcDbEntity
  8
0
  6
CONTINUOUS
 62
     7
100
AcDbLine
 10
79.08009
 20
49.150911
 30
0.0
 11
79.091351
 21
49.132727
 31
0.0
  0
LINE
  5
274
330
26B
100
AcDbEntity
  8
0
  6
CONTINUOUS
 62
     7
100
AcDbLine
 10
79.091351
 20
49.132727
 30
0.0
 11
79.102563
 21
49.114534
 31
0.0
  0
LINE
  5
275
330
26B
100
AcDbEntity
  8
0
  6
CONTINUOUS
 62
     7
100
AcDbLine
 10
79.102563
 20
49.114534
 30
0.0
 11
79.113722
 21
49.09633
 31
0.0
  0
LINE
  5
276
330
26B
100
AcDbEntity
  8
0
  6
CONTINUOUS
 62
     7
100
AcDbLine
 10
79.113722
 20
49.09633
 30
0.0
 11
79.124822
 21
49.078114
 31
0.0
  0
LINE
  5
277
330
26B
100
AcDbEntity
  8
0
  6
CONTINUOUS
 62
     7
100
AcDbLine
 10
79.124822
 20
49.078114
 30
0.0
 11
79.135858
 21
49.059885
 31
0.0
  0
LINE
  5
278
330
26B
100
AcDbEntity
  8
0
  6
CONTINUOUS
 62
     7
100
AcDbLine
 10
79.135858
 20
49.059885
 30
0.0
 11
79.146824
 21
49.041641
 31
0.0
  0
LINE
  5
279
330
26B
100
AcDbEntity
  8
0
  6
CONTINUOUS
 62
     7
100
AcDbLine
 10
79.146824
 20
49.041641
 30
0.0
 11
79.157715
 21
49.023382
 31
0.0
  0
LINE
  5
27A
330
26B
100
AcDbEntity
  8
0
  6
CONTINUOUS
 62
     7
100
AcDbLine
 10
79.157715
 20
49.023382
 30
0.0
 11
79.168527
 21
49.005106
 31
0.0
  0
LINE
  5
27B
330
26B
100
AcDbEntity
  8
0
  6
CONTINUOUS
 62
     7
100
AcDbLine
 10
79.168527
 20
49.005106
 30
0.0
 11
79.179252
 21
48.986813
 31
0.0
  0
LINE
  5
27C
330
26B
100
AcDbEntity
  8
0
  6
CONTINUOUS
 62
     7
100
AcDbLine
 10
79.179252
 20
48.986813
 30
0.0
 11
79.189887
 21
48.968502
 31
0.0
  0
LINE
  5
27D
330
26B
100
AcDbEntity
  8
0
  6
CONTINUOUS
 62
     7
100
AcDbLine
 10
79.189887
 20
48.968502
 30
0.0
 11
79.200426
 21
48.95017
 31
0.0
  0
LINE
  5
27E
330
26B
100
AcDbEntity
  8
0
  6
CONTINUOUS
 62
     7
100
AcDbLine
 10
79.200426
 20
48.95017
 30
0.0
 11
79.210863
 21
48.931818
 31
0.0
  0
LINE
  5
27F
330
26B
100
AcDbEntity
  8
0
  6
CONTINUOUS
 62
     7
100
AcDbLine
 10
79.210863
 20
48.931818
 30
0.0
 11
79.221193
 21
48.913443
 31
0.0
  0
LINE
  5
280
330
26B
100
AcDbEntity
  8
0
  6
CONTINUOUS
 62
     7
100
AcDbLine
 10
79.221193
 20
48.913443
 30
0.0
 11
79.231411
 21
48.895046
 31
0.0
  0
LINE
  5
281
330
26B
100
AcDbEntity
  8
0
  6
CONTINUOUS
 62
     7
100
AcDbLine
 10
79.231411
 20
48.895046
 30
0.0
 11
79.241511
 21
48.876624
 31
0.0
  0
LINE
  5
282
330
26B
100
AcDbEntity
  8
0
  6
CONTINUOUS
 62
     7
100
AcDbLine
 10
79.241511
 20
48.876624
 30
0.0
 11
79.251488
 21
48.858178
 31
0.0
  0
LINE
  5
283
330
26B
100
AcDbEntity
  8
0
  6
CONTINUOUS
 62
     7
100
AcDbLine
 10
79.251488
 20
48.858178
 30
0.0
 11
79.261337
 21
48.839704
 31
0.0
  0
LINE
  5
284
330
26B
100
AcDbEntity
  8
0
  6
CONTINUOUS
 62
     7
100
AcDbLine
 10
79.261337
 20
48.839704
 30
0.0
 11
79.271052
 21
48.821204
 31
0.0
  0
LINE
  5
285
330
26B
100
AcDbEntity
  8
0
  6
CONTINUOUS
 62
     7
100
AcDbLine
 10
79.271052
 20
48.821204
 30
0.0
 11
79.280628
 21
48.802674
 31
0.0
  0
LINE
  5
286
330
26B
100
AcDbEntity
  8
0
  6
CONTINUOUS
 62
     7
100
AcDbLine
 10
79.280628
 20
48.802674
 30
0.0
 11
79.29006
 21
48.784116
 31
0.0
  0
LINE
  5
287
330
26B
100
AcDbEntity
  8
0
  6
CONTINUOUS
 62
     7
100
AcDbLine
 10
79.29006
 20
48.784116
 30
0.0
 11
79.299342
 21
48.765526
 31
0.0
  0
LINE
  5
288
330
26B
100
AcDbEntity
  8
0
  6
CONTINUOUS
 62
     7
100
AcDbLine
 10
79.299342
 20
48.765526
 30
0.0
 11
79.308469
 21
48.746905
 31
0.0
  0
LINE
  5
289
330
26B
100
AcDbEntity
  8
0
  6
CONTINUOUS
 62
     7
100
AcDbLine
 10
79.308469
 20
48.746905
 30
0.0
 11
79.317436
 21
48.72825
 31
0.0
  0
LINE
  5
28A
330
26B
100
AcDbEntity
  8
0
  6
CONTINUOUS
 62
     7
100
AcDbLine
 10
79.317436
 20
48.72825
 30
0.0
 11
79.326237
 21
48.709562
 31
0.0
  0
LINE
  5
28B
330
26B
100
AcDbEntity
  8
0
  6
CONTINUOUS
 62
     7
100
AcDbLine
 10
79.326237
 20
48.709562
 30
0.0
 11
79.334867
 21
48.690838
 31
0.0
  0
LINE
  5
28C
330
26B
100
AcDbEntity
  8
0
  6
CONTINUOUS
 62
     7
100
AcDbLine
 10
79.334867
 20
48.690838
 30
0.0
 11
79.34332
 21
48.672078
 31
0.0
  0
LINE
  5
28D
330
26B
100
AcDbEntity
  8
0
  6
CONTINUOUS
 62
     7
100
AcDbLine
 10
79.34332
 20
48.672078
 30
0.0
 11
79.351592
 21
48.653281
 31
0.0
  0
LINE
  5
28E
330
26B
100
AcDbEntity
  8
0
  6
CONTINUOUS
 62
     7
100
AcDbLine
 10
79.351592
 20
48.653281
 30
0.0
 11
79.359676
 21
48.634445
 31
0.0
  0
LINE
  5
28F
330
26B
100
AcDbEntity
  8
0
  6
CONTINUOUS
 62
     7
100
AcDbLine
 10
79.359676
 20
48.634445
 30
0.0
 11
79.367568
 21
48.61557
 31
0.0
  0
LINE
  5
290
330
26B
100
AcDbEntity
  8
0
  6
CONTINUOUS
 62
     7
100
AcDbLine
 10
79.367568
 20
48.61557
 30
0.0
 11
79.375262
 21
48.596654
 31
0.0
  0
LINE
  5
291
330
26B
100
AcDbEntity
  8
0
  6
CONTINUOUS
 62
     7
100
AcDbLine
 10
79.375262
 20
48.596654
 30
0.0
 11
79.382753
 21
48.577697
 31
0.0
  0
LINE
  5
292
330
26B
100
AcDbEntity
  8
0
  6
CONTINUOUS
 62
     7
100
AcDbLine
 10
79.382753
 20
48.577697
 30
0.0
 11
79.390036
 21
48.558696
 31
0.0
  0
LINE
  5
293
330
26B
100
AcDbEntity
  8
0
  6
CONTINUOUS
 62
     7
100
AcDbLine
 10
79.390036
 20
48.558696
 30
0.0
 11
79.397105
 21
48.539652
 31
0.0
  0
LINE
  5
294
330
26B
100
AcDbEntity
  8
0
  6
CONTINUOUS
 62
     7
100
AcDbLine
 10
79.397105
 20
48.539652
 30
0.0
 11
79.403954
 21
48.520563
 31
0.0
  0
LINE
  5
295
330
26B
100
AcDbEntity
  8
0
  6
CONTINUOUS
 62
     7
100
AcDbLine
 10
79.403954
 20
48.520563
 30
0.0
 11
79.410579
 21
48.501427
 31
0.0
  0
LINE
  5
296
330
26B
100
AcDbEntity
  8
0
  6
CONTINUOUS
 62
     7
100
AcDbLine
 10
79.410579
 20
48.501427
 30
0.0
 11
79.416974
 21
48.482245
 31
0.0
  0
LINE
  5
297
330
26B
100
AcDbEntity
  8
0
  6
CONTINUOUS
 62
     7
100
AcDbLine
 10
79.416974
 20
48.482245
 30
0.0
 11
79.423134
 21
48.463014
 31
0.0
  0
LINE
  5
298
330
26B
100
AcDbEntity
  8
0
  6
CONTINUOUS
 62
     7
100
AcDbLine
 10
79.423134
 20
48.463014
 30
0.0
 11
79.429053
 21
48.443733
 31
0.0
  0
LINE
  5
299
330
26B
100
AcDbEntity
  8
0
  6
CONTINUOUS
 62
     7
100
AcDbLine
 10
79.429053
 20
48.443733
 30
0.0
 11
79.434726
 21
48.424402
 31
0.0
  0
LINE
  5
29A
330
26B
100
AcDbEntity
  8
0
  6
CONTINUOUS
 62
     7
100
AcDbLine
 10
79.434726
 20
48.424402
 30
0.0
 11
79.440148
 21
48.40502
 31
0.0
  0
LINE
  5
29B
330
26B
100
AcDbEntity
  8
0
  6
CONTINUOUS
 62
     7
100
AcDbLine
 10
79.440148
 20
48.40502
 30
0.0
 11
79.445313
 21
48.385584
 31
0.0
  0
LINE
  5
29C
330
26B
100
AcDbEntity
  8
0
  6
CONTINUOUS
 62
     7
100
AcDbLine
 10
79.445313
 20
48.385584
 30
0.0
 11
79.450216
 21
48.366095
 31
0.0
  0
LINE
  5
29D
330
26B
100
AcDbEntity
  8
0
  6
CONTINUOUS
 62
     7
100
AcDbLine
 10
79.450216
 20
48.366095
 30
0.0
 11
79.454852
 21
48.346551
 31
0.0
  0
LINE
  5
29E
330
26B
100
AcDbEntity
  8
0
  6
CONTINUOUS
 62
     7
100
AcDbLine
 10
79.454852
 20
48.346551
 30
0.0
 11
79.459215
 21
48.326951
 31
0.0
  0
LINE
  5
29F
330
26B
100
AcDbEntity
  8
0
  6
CONTINUOUS
 62
     7
100
AcDbLine
 10
79.459215
 20
48.326951
 30
0.0
 11
79.4633
 21
48.307294
 31
0.0
  0
LINE
  5
2A0
330
26B
100
AcDbEntity
  8
0
  6
CONTINUOUS
 62
     7
100
AcDbLine
 10
79.4633
 20
48.307294
 30
0.0
 11
79.467102
 21
48.287579
 31
0.0
  0
LINE
  5
2A1
330
26B
100
AcDbEntity
  8
0
  6
CONTINUOUS
 62
     7
100
AcDbLine
 10
79.467102
 20
48.287579
 30
0.0
 11
79.470615
 21
48.267804
 31
0.0
  0
LINE
  5
2A2
330
26B
100
AcDbEntity
  8
0
  6
CONTINUOUS
 62
     7
100
AcDbLine
 10
79.470615
 20
48.267804
 30
0.0
 11
79.473834
 21
48.247969
 31
0.0
  0
LINE
  5
2A3
330
26B
100
AcDbEntity
  8
0
  6
CONTINUOUS
 62
     7
100
AcDbLine
 10
79.473834
 20
48.247969
 30
0.0
 11
79.476754
 21
48.228072
 31
0.0
  0
LINE
  5
2A4
330
26B
100
AcDbEntity
  8
0
  6
CONTINUOUS
 62
     7
100
AcDbLine
 10
79.476754
 20
48.228072
 30
0.0
 11
79.479369
 21
48.208113
 31
0.0
  0
LINE
  5
2A5
330
26B
100
AcDbEntity
  8
0
  6
CONTINUOUS
 62
     7
100
AcDbLine
 10
79.479369
 20
48.208113
 30
0.0
 11
79.481674
 21
48.18809
 31
0.0
  0
LINE
  5
2A6
330
26B
100
AcDbEntity
  8
0
  6
CONTINUOUS
 62
     7
100
AcDbLine
 10
79.481674
 20
48.18809
 30
0.0
 11
79.482708
 21
48.178054
 31
0.0
  0
LINE
  5
2A7
330
26B
100
AcDbEntity
  8
0
  6
CONTINUOUS
 62
     7
100
AcDbLine
 10
79.482708
 20
48.178054
 30
0.0
 11
79.483663
 21
48.168002
 31
0.0
  0
LINE
  5
2A8
330
26B
100
AcDbEntity
  8
0
  6
CONTINUOUS
 62
     7
100
AcDbLine
 10
79.483663
 20
48.168002
 30
0.0
 11
79.484538
 21
48.157934
 31
0.0
  0
LINE
  5
2A9
330
26B
100
AcDbEntity
  8
0
  6
CONTINUOUS
 62
     7
100
AcDbLine
 10
79.484538
 20
48.157934
 30
0.0
 11
79.485332
 21
48.147849
 31
0.0
  0
LINE
  5
2AA
330
26B
100
AcDbEntity
  8
0
  6
CONTINUOUS
 62
     7
100
AcDbLine
 10
79.485332
 20
48.147849
 30
0.0
 11
79.486044
 21
48.137747
 31
0.0
  0
LINE
  5
2AB
330
26B
100
AcDbEntity
  8
0
  6
CONTINUOUS
 62
     7
100
AcDbLine
 10
79.486044
 20
48.137747
 30
0.0
 11
79.486674
 21
48.127628
 31
0.0
  0
LINE
  5
2AC
330
26B
100
AcDbEntity
  8
0
  6
CONTINUOUS
 62
     7
100
AcDbLine
 10
79.486674
 20
48.127628
 30
0.0
 11
79.487221
 21
48.117492
 31
0.0
  0
LINE
  5
2AD
330
26B
100
AcDbEntity
  8
0
  6
CONTINUOUS
 62
     7
100
AcDbLine
 10
79.487221
 20
48.117492
 30
0.0
 11
79.487685
 21
48.107339
 31
0.0
  0
LINE
  5
2AE
330
26B
100
AcDbEntity
  8
0
  6
CONTINUOUS
 62
     7
100
AcDbLine
 10
79.487685
 20
48.107339
 30
0.0
 11
79.488064
 21
48.097169
 31
0.0
  0
LINE
  5
2AF
330
26B
100
AcDbEntity
  8
0
  6
CONTINUOUS
 62
     7
100
AcDbLine
 10
79.488064
 20
48.097169
 30
0.0
 11
79.488359
 21
48.086982
 31
0.0
  0
LINE
  5
2B0
330
26B
100
AcDbEntity
  8
0
  6
CONTINUOUS
 62
     7
100
AcDbLine
 10
79.488359
 20
48.086982
 30
0.0
 11
79.48872
 21
48.066585
 31
0.0
  0
LINE
  5
2B1
330
26B
100
AcDbEntity
  8
0
  6
CONTINUOUS
 62
     7
100
AcDbLine
 10
79.48872
 20
48.066585
 30
0.0
 11
79.48891
 21
48.046152
 31
0.0
  0
ENDBLK
  5
26D
330
26B
100
AcDbEntity
  8
0
100
AcDbBlockEnd
  0
BLOCK
  5
2B4
330
2B3
100
AcDbEntity
  8
0
100
AcDbBlockBegin
  2
BLKF017
 70
     0
 71
     0
 10
0.0
 20
0.0
 30
0.0
  3
BLKF017
  1

  0
LINE
  5
2B7
330
2B3
100
AcDbEntity
  8
0
  6
CONTINUOUS
 62
     7
100
AcDbLine
 10
75.68892
 20
36.403847
 30
0.0
 11
75.676148
 21
36.420564
 31
0.0
  0
LINE
  5
2B8
330
2B3
100
AcDbEntity
  8
0
  6
CONTINUOUS
 62
     7
100
AcDbLine
 10
75.676148
 20
36.420564
 30
0.0
 11
75.663454
 21
36.437338
 31
0.0
  0
LINE
  5
2B9
330
2B3
100
AcDbEntity
  8
0
  6
CONTINUOUS
 62
     7
100
AcDbLine
 10
75.663454
 20
36.437338
 30
0.0
 11
75.651895
 21
36.452872
 31
0.0
  0
LINE
  5
2BA
330
2B3
100
AcDbEntity
  8
0
  6
CONTINUOUS
 62
     7
100
AcDbLine
 10
75.651895
 20
36.452872
 30
0.0
 11
75.640462
 21
36.468497
 31
0.0
  0
LINE
  5
2BB
330
2B3
100
AcDbEntity
  8
0
  6
CONTINUOUS
 62
     7
100
AcDbLine
 10
75.640462
 20
36.468497
 30
0.0
 11
75.629146
 21
36.484206
 31
0.0
  0
LINE
  5
2BC
330
2B3
100
AcDbEntity
  8
0
  6
CONTINUOUS
 62
     7
100
AcDbLine
 10
75.629146
 20
36.484206
 30
0.0
 11
75.617939
 21
36.499994
 31
0.0
  0
LINE
  5
2BD
330
2B3
100
AcDbEntity
  8
0
  6
CONTINUOUS
 62
     7
100
AcDbLine
 10
75.617939
 20
36.499994
 30
0.0
 11
75.606833
 21
36.515854
 31
0.0
  0
LINE
  5
2BE
330
2B3
100
AcDbEntity
  8
0
  6
CONTINUOUS
 62
     7
100
AcDbLine
 10
75.606833
 20
36.515854
 30
0.0
 11
75.59582
 21
36.531781
 31
0.0
  0
LINE
  5
2BF
330
2B3
100
AcDbEntity
  8
0
  6
CONTINUOUS
 62
     7
100
AcDbLine
 10
75.59582
 20
36.531781
 30
0.0
 11
75.58489
 21
36.547768
 31
0.0
  0
LINE
  5
2C0
330
2B3
100
AcDbEntity
  8
0
  6
CONTINUOUS
 62
     7
100
AcDbLine
 10
75.58489
 20
36.547768
 30
0.0
 11
75.574036
 21
36.56381
 31
0.0
  0
LINE
  5
2C1
330
2B3
100
AcDbEntity
  8
0
  6
CONTINUOUS
 62
     7
100
AcDbLine
 10
75.574036
 20
36.56381
 30
0.0
 11
75.56325
 21
36.5799
 31
0.0
  0
LINE
  5
2C2
330
2B3
100
AcDbEntity
  8
0
  6
CONTINUOUS
 62
     7
100
AcDbLine
 10
75.56325
 20
36.5799
 30
0.0
 11
75.552521
 21
36.596033
 31
0.0
  0
LINE
  5
2C3
330
2B3
100
AcDbEntity
  8
0
  6
CONTINUOUS
 62
     7
100
AcDbLine
 10
75.552521
 20
36.596033
 30
0.0
 11
75.541844
 21
36.612202
 31
0.0
  0
LINE
  5
2C4
330
2B3
100
AcDbEntity
  8
0
  6
CONTINUOUS
 62
     7
100
AcDbLine
 10
75.541844
 20
36.612202
 30
0.0
 11
75.531208
 21
36.628401
 31
0.0
  0
LINE
  5
2C5
330
2B3
100
AcDbEntity
  8
0
  6
CONTINUOUS
 62
     7
100
AcDbLine
 10
75.531208
 20
36.628401
 30
0.0
 11
75.510029
 21
36.660865
 31
0.0
  0
LINE
  5
2C6
330
2B3
100
AcDbEntity
  8
0
  6
CONTINUOUS
 62
     7
100
AcDbLine
 10
75.510029
 20
36.660865
 30
0.0
 11
75.488917
 21
36.693378
 31
0.0
  0
ENDBLK
  5
2B5
330
2B3
100
AcDbEntity
  8
0
100
AcDbBlockEnd
  0
BLOCK
  5
2D3
330
2D2
100
AcDbEntity
  8
0
100
AcDbBlockBegin
  2
BLKF018
 70
     0
 71
     0
 10
0.0
 20
0.0
 30
0.0
  3
BLKF018
  1

  0
LINE
  5
2D6
330
2D2
100
AcDbEntity
  8
0
  6
CONTINUOUS
 62
     7
100
AcDbLine
 10
74.988923
 20
45.35
 30
0.0
 11
75.027657
 21
45.242461
 31
0.0
  0
LINE
  5
2D7
330
2D2
100
AcDbEntity
  8
0
  6
CONTINUOUS
 62
     7
100
AcDbLine
 10
75.027657
 20
45.242461
 30
0.0
 11
75.066054
 21
45.134847
 31
0.0
  0
LINE
  5
2D8
330
2D2
100
AcDbEntity
  8
0
  6
CONTINUOUS
 62
     7
100
AcDbLine
 10
75.066054
 20
45.134847
 30
0.0
 11
75.10378
 21
45.027079
 31
0.0
  0
LINE
  5
2D9
330
2D2
100
AcDbEntity
  8
0
  6
CONTINUOUS
 62
     7
100
AcDbLine
 10
75.10378
 20
45.027079
 30
0.0
 11
75.140498
 21
44.919082
 31
0.0
  0
LINE
  5
2DA
330
2D2
100
AcDbEntity
  8
0
  6
CONTINUOUS
 62
     7
100
AcDbLine
 10
75.140498
 20
44.919082
 30
0.0
 11
75.158375
 21
44.864974
 31
0.0
  0
LINE
  5
2DB
330
2D2
100
AcDbEntity
  8
0
  6
CONTINUOUS
 62
     7
100
AcDbLine
 10
75.158375
 20
44.864974
 30
0.0
 11
75.175874
 21
44.810781
 31
0.0
  0
LINE
  5
2DC
330
2D2
100
AcDbEntity
  8
0
  6
CONTINUOUS
 62
     7
100
AcDbLine
 10
75.175874
 20
44.810781
 30
0.0
 11
75.192953
 21
44.756491
 31
0.0
  0
LINE
  5
2DD
330
2D2
100
AcDbEntity
  8
0
  6
CONTINUOUS
 62
     7
100
AcDbLine
 10
75.192953
 20
44.756491
 30
0.0
 11
75.209571
 21
44.702097
 31
0.0
  0
LINE
  5
2DE
330
2D2
100
AcDbEntity
  8
0
  6
CONTINUOUS
 62
     7
100
AcDbLine
 10
75.209571
 20
44.702097
 30
0.0
 11
75.225685
 21
44.647588
 31
0.0
  0
LINE
  5
2DF
330
2D2
100
AcDbEntity
  8
0
  6
CONTINUOUS
 62
     7
100
AcDbLine
 10
75.225685
 20
44.647588
 30
0.0
 11
75.241253
 21
44.592955
 31
0.0
  0
LINE
  5
2E0
330
2D2
100
AcDbEntity
  8
0
  6
CONTINUOUS
 62
     7
100
AcDbLine
 10
75.241253
 20
44.592955
 30
0.0
 11
75.256234
 21
44.538189
 31
0.0
  0
LINE
  5
2E1
330
2D2
100
AcDbEntity
  8
0
  6
CONTINUOUS
 62
     7
100
AcDbLine
 10
75.256234
 20
44.538189
 30
0.0
 11
75.270585
 21
44.48328
 31
0.0
  0
LINE
  5
2E2
330
2D2
100
AcDbEntity
  8
0
  6
CONTINUOUS
 62
     7
100
AcDbLine
 10
75.270585
 20
44.48328
 30
0.0
 11
75.282991
 21
44.433509
 31
0.0
  0
LINE
  5
2E3
330
2D2
100
AcDbEntity
  8
0
  6
CONTINUOUS
 62
     7
100
AcDbLine
 10
75.282991
 20
44.433509
 30
0.0
 11
75.294865
 21
44.383617
 31
0.0
  0
LINE
  5
2E4
330
2D2
100
AcDbEntity
  8
0
  6
CONTINUOUS
 62
     7
100
AcDbLine
 10
75.294865
 20
44.383617
 30
0.0
 11
75.306224
 21
44.333609
 31
0.0
  0
LINE
  5
2E5
330
2D2
100
AcDbEntity
  8
0
  6
CONTINUOUS
 62
     7
100
AcDbLine
 10
75.306224
 20
44.333609
 30
0.0
 11
75.317086
 21
44.283487
 31
0.0
  0
LINE
  5
2E6
330
2D2
100
AcDbEntity
  8
0
  6
CONTINUOUS
 62
     7
100
AcDbLine
 10
75.317086
 20
44.283487
 30
0.0
 11
75.327468
 21
44.233256
 31
0.0
  0
LINE
  5
2E7
330
2D2
100
AcDbEntity
  8
0
  6
CONTINUOUS
 62
     7
100
AcDbLine
 10
75.327468
 20
44.233256
 30
0.0
 11
75.337386
 21
44.18292
 31
0.0
  0
LINE
  5
2E8
330
2D2
100
AcDbEntity
  8
0
  6
CONTINUOUS
 62
     7
100
AcDbLine
 10
75.337386
 20
44.18292
 30
0.0
 11
75.346859
 21
44.132482
 31
0.0
  0
LINE
  5
2E9
330
2D2
100
AcDbEntity
  8
0
  6
CONTINUOUS
 62
     7
100
AcDbLine
 10
75.346859
 20
44.132482
 30
0.0
 11
75.355903
 21
44.081947
 31
0.0
  0
LINE
  5
2EA
330
2D2
100
AcDbEntity
  8
0
  6
CONTINUOUS
 62
     7
100
AcDbLine
 10
75.355903
 20
44.081947
 30
0.0
 11
75.364535
 21
44.031319
 31
0.0
  0
LINE
  5
2EB
330
2D2
100
AcDbEntity
  8
0
  6
CONTINUOUS
 62
     7
100
AcDbLine
 10
75.364535
 20
44.031319
 30
0.0
 11
75.372773
 21
43.9806
 31
0.0
  0
LINE
  5
2EC
330
2D2
100
AcDbEntity
  8
0
  6
CONTINUOUS
 62
     7
100
AcDbLine
 10
75.372773
 20
43.9806
 30
0.0
 11
75.380634
 21
43.929796
 31
0.0
  0
LINE
  5
2ED
330
2D2
100
AcDbEntity
  8
0
  6
CONTINUOUS
 62
     7
100
AcDbLine
 10
75.380634
 20
43.929796
 30
0.0
 11
75.388134
 21
43.87891
 31
0.0
  0
LINE
  5
2EE
330
2D2
100
AcDbEntity
  8
0
  6
CONTINUOUS
 62
     7
100
AcDbLine
 10
75.388134
 20
43.87891
 30
0.0
 11
75.402123
 21
43.776908
 31
0.0
  0
LINE
  5
2EF
330
2D2
100
AcDbEntity
  8
0
  6
CONTINUOUS
 62
     7
100
AcDbLine
 10
75.402123
 20
43.776908
 30
0.0
 11
75.414877
 21
43.674626
 31
0.0
  0
LINE
  5
2F0
330
2D2
100
AcDbEntity
  8
0
  6
CONTINUOUS
 62
     7
100
AcDbLine
 10
75.414877
 20
43.674626
 30
0.0
 11
75.426533
 21
43.572093
 31
0.0
  0
LINE
  5
2F1
330
2D2
100
AcDbEntity
  8
0
  6
CONTINUOUS
 62
     7
100
AcDbLine
 10
75.426533
 20
43.572093
 30
0.0
 11
75.437229
 21
43.469343
 31
0.0
  0
LINE
  5
2F2
330
2D2
100
AcDbEntity
  8
0
  6
CONTINUOUS
 62
     7
100
AcDbLine
 10
75.437229
 20
43.469343
 30
0.0
 11
75.447101
 21
43.366405
 31
0.0
  0
LINE
  5
2F3
330
2D2
100
AcDbEntity
  8
0
  6
CONTINUOUS
 62
     7
100
AcDbLine
 10
75.447101
 20
43.366405
 30
0.0
 11
75.456288
 21
43.263311
 31
0.0
  0
LINE
  5
2F4
330
2D2
100
AcDbEntity
  8
0
  6
CONTINUOUS
 62
     7
100
AcDbLine
 10
75.456288
 20
43.263311
 30
0.0
 11
75.464925
 21
43.160093
 31
0.0
  0
LINE
  5
2F5
330
2D2
100
AcDbEntity
  8
0
  6
CONTINUOUS
 62
     7
100
AcDbLine
 10
75.464925
 20
43.160093
 30
0.0
 11
75.473151
 21
43.05678
 31
0.0
  0
LINE
  5
2F6
330
2D2
100
AcDbEntity
  8
0
  6
CONTINUOUS
 62
     7
100
AcDbLine
 10
75.473151
 20
43.05678
 30
0.0
 11
75.488917
 21
42.85
 31
0.0
  0
ENDBLK
  5
2D4
330
2D2
100
AcDbEntity
  8
0
100
AcDbBlockEnd
  0
BLOCK
  5
2FD
330
2FC
100
AcDbEntity
  8
0
100
AcDbBlockBegin
  2
BLKF019
 70
     0
 71
     0
 10
0.0
 20
0.0
 30
0.0
  3
BLKF019
  1

  0
LINE
  5
300
330
2FC
100
AcDbEntity
  8
0
  6
CONTINUOUS
 62
     7
100
AcDbLine
 10
74.988923
 20
40.35
 30
0.0
 11
75.021684
 21
40.437449
 31
0.0
  0
LINE
  5
301
330
2FC
100
AcDbEntity
  8
0
  6
CONTINUOUS
 62
     7
100
AcDbLine
 10
75.021684
 20
40.437449
 30
0.0
 11
75.037929
 21
40.481209
 31
0.0
  0
LINE
  5
302
330
2FC
100
AcDbEntity
  8
0
  6
CONTINUOUS
 62
     7
100
AcDbLine
 10
75.037929
 20
40.481209
 30
0.0
 11
75.054013
 21
40.525013
 31
0.0
  0
LINE
  5
303
330
2FC
100
AcDbEntity
  8
0
  6
CONTINUOUS
 62
     7
100
AcDbLine
 10
75.054013
 20
40.525013
 30
0.0
 11
75.069882
 21
40.568873
 31
0.0
  0
LINE
  5
304
330
2FC
100
AcDbEntity
  8
0
  6
CONTINUOUS
 62
     7
100
AcDbLine
 10
75.069882
 20
40.568873
 30
0.0
 11
75.085481
 21
40.612804
 31
0.0
  0
LINE
  5
305
330
2FC
100
AcDbEntity
  8
0
  6
CONTINUOUS
 62
     7
100
AcDbLine
 10
75.085481
 20
40.612804
 30
0.0
 11
75.100758
 21
40.656822
 31
0.0
  0
LINE
  5
306
330
2FC
100
AcDbEntity
  8
0
  6
CONTINUOUS
 62
     7
100
AcDbLine
 10
75.100758
 20
40.656822
 30
0.0
 11
75.115658
 21
40.700939
 31
0.0
  0
LINE
  5
307
330
2FC
100
AcDbEntity
  8
0
  6
CONTINUOUS
 62
     7
100
AcDbLine
 10
75.115658
 20
40.700939
 30
0.0
 11
75.126281
 21
40.733247
 31
0.0
  0
LINE
  5
308
330
2FC
100
AcDbEntity
  8
0
  6
CONTINUOUS
 62
     7
100
AcDbLine
 10
75.126281
 20
40.733247
 30
0.0
 11
75.136677
 21
40.765616
 31
0.0
  0
LINE
  5
309
330
2FC
100
AcDbEntity
  8
0
  6
CONTINUOUS
 62
     7
100
AcDbLine
 10
75.136677
 20
40.765616
 30
0.0
 11
75.146851
 21
40.798043
 31
0.0
  0
LINE
  5
30A
330
2FC
100
AcDbEntity
  8
0
  6
CONTINUOUS
 62
     7
100
AcDbLine
 10
75.146851
 20
40.798043
 30
0.0
 11
75.156805
 21
40.830529
 31
0.0
  0
LINE
  5
30B
330
2FC
100
AcDbEntity
  8
0
  6
CONTINUOUS
 62
     7
100
AcDbLine
 10
75.156805
 20
40.830529
 30
0.0
 11
75.166545
 21
40.863072
 31
0.0
  0
LINE
  5
30C
330
2FC
100
AcDbEntity
  8
0
  6
CONTINUOUS
 62
     7
100
AcDbLine
 10
75.166545
 20
40.863072
 30
0.0
 11
75.176072
 21
40.895671
 31
0.0
  0
LINE
  5
30D
330
2FC
100
AcDbEntity
  8
0
  6
CONTINUOUS
 62
     7
100
AcDbLine
 10
75.176072
 20
40.895671
 30
0.0
 11
75.194504
 21
40.961034
 31
0.0
  0
LINE
  5
30E
330
2FC
100
AcDbEntity
  8
0
  6
CONTINUOUS
 62
     7
100
AcDbLine
 10
75.194504
 20
40.961034
 30
0.0
 11
75.212132
 21
41.02661
 31
0.0
  0
LINE
  5
30F
330
2FC
100
AcDbEntity
  8
0
  6
CONTINUOUS
 62
     7
100
AcDbLine
 10
75.212132
 20
41.02661
 30
0.0
 11
75.228984
 21
41.092393
 31
0.0
  0
LINE
  5
310
330
2FC
100
AcDbEntity
  8
0
  6
CONTINUOUS
 62
     7
100
AcDbLine
 10
75.228984
 20
41.092393
 30
0.0
 11
75.245089
 21
41.158373
 31
0.0
  0
LINE
  5
311
330
2FC
100
AcDbEntity
  8
0
  6
CONTINUOUS
 62
     7
100
AcDbLine
 10
75.245089
 20
41.158373
 30
0.0
 11
75.260475
 21
41.224544
 31
0.0
  0
LINE
  5
312
330
2FC
100
AcDbEntity
  8
0
  6
CONTINUOUS
 62
     7
100
AcDbLine
 10
75.260475
 20
41.224544
 30
0.0
 11
75.275172
 21
41.290898
 31
0.0
  0
LINE
  5
313
330
2FC
100
AcDbEntity
  8
0
  6
CONTINUOUS
 62
     7
100
AcDbLine
 10
75.275172
 20
41.290898
 30
0.0
 11
75.289207
 21
41.357427
 31
0.0
  0
LINE
  5
314
330
2FC
100
AcDbEntity
  8
0
  6
CONTINUOUS
 62
     7
100
AcDbLine
 10
75.289207
 20
41.357427
 30
0.0
 11
75.30261
 21
41.424124
 31
0.0
  0
LINE
  5
315
330
2FC
100
AcDbEntity
  8
0
  6
CONTINUOUS
 62
     7
100
AcDbLine
 10
75.30261
 20
41.424124
 30
0.0
 11
75.31541
 21
41.490981
 31
0.0
  0
LINE
  5
316
330
2FC
100
AcDbEntity
  8
0
  6
CONTINUOUS
 62
     7
100
AcDbLine
 10
75.31541
 20
41.490981
 30
0.0
 11
75.327634
 21
41.557991
 31
0.0
  0
LINE
  5
317
330
2FC
100
AcDbEntity
  8
0
  6
CONTINUOUS
 62
     7
100
AcDbLine
 10
75.327634
 20
41.557991
 30
0.0
 11
75.339313
 21
41.625145
 31
0.0
  0
LINE
  5
318
330
2FC
100
AcDbEntity
  8
0
  6
CONTINUOUS
 62
     7
100
AcDbLine
 10
75.339313
 20
41.625145
 30
0.0
 11
75.350475
 21
41.692437
 31
0.0
  0
LINE
  5
319
330
2FC
100
AcDbEntity
  8
0
  6
CONTINUOUS
 62
     7
100
AcDbLine
 10
75.350475
 20
41.692437
 30
0.0
 11
75.361147
 21
41.759858
 31
0.0
  0
LINE
  5
31A
330
2FC
100
AcDbEntity
  8
0
  6
CONTINUOUS
 62
     7
100
AcDbLine
 10
75.361147
 20
41.759858
 30
0.0
 11
75.37136
 21
41.827401
 31
0.0
  0
LINE
  5
31B
330
2FC
100
AcDbEntity
  8
0
  6
CONTINUOUS
 62
     7
100
AcDbLine
 10
75.37136
 20
41.827401
 30
0.0
 11
75.381142
 21
41.895059
 31
0.0
  0
LINE
  5
31C
330
2FC
100
AcDbEntity
  8
0
  6
CONTINUOUS
 62
     7
100
AcDbLine
 10
75.381142
 20
41.895059
 30
0.0
 11
75.390522
 21
41.962823
 31
0.0
  0
LINE
  5
31D
330
2FC
100
AcDbEntity
  8
0
  6
CONTINUOUS
 62
     7
100
AcDbLine
 10
75.390522
 20
41.962823
 30
0.0
 11
75.399528
 21
42.030686
 31
0.0
  0
LINE
  5
31E
330
2FC
100
AcDbEntity
  8
0
  6
CONTINUOUS
 62
     7
100
AcDbLine
 10
75.399528
 20
42.030686
 30
0.0
 11
75.408189
 21
42.098641
 31
0.0
  0
LINE
  5
31F
330
2FC
100
AcDbEntity
  8
0
  6
CONTINUOUS
 62
     7
100
AcDbLine
 10
75.408189
 20
42.098641
 30
0.0
 11
75.416533
 21
42.166679
 31
0.0
  0
LINE
  5
320
330
2FC
100
AcDbEntity
  8
0
  6
CONTINUOUS
 62
     7
100
AcDbLine
 10
75.416533
 20
42.166679
 30
0.0
 11
75.424591
 21
42.234794
 31
0.0
  0
LINE
  5
321
330
2FC
100
AcDbEntity
  8
0
  6
CONTINUOUS
 62
     7
100
AcDbLine
 10
75.424591
 20
42.234794
 30
0.0
 11
75.43239
 21
42.302978
 31
0.0
  0
LINE
  5
322
330
2FC
100
AcDbEntity
  8
0
  6
CONTINUOUS
 62
     7
100
AcDbLine
 10
75.43239
 20
42.302978
 30
0.0
 11
75.439959
 21
42.371222
 31
0.0
  0
LINE
  5
323
330
2FC
100
AcDbEntity
  8
0
  6
CONTINUOUS
 62
     7
100
AcDbLine
 10
75.439959
 20
42.371222
 30
0.0
 11
75.447326
 21
42.43952
 31
0.0
  0
LINE
  5
324
330
2FC
100
AcDbEntity
  8
0
  6
CONTINUOUS
 62
     7
100
AcDbLine
 10
75.447326
 20
42.43952
 30
0.0
 11
75.454521
 21
42.507863
 31
0.0
  0
LINE
  5
325
330
2FC
100
AcDbEntity
  8
0
  6
CONTINUOUS
 62
     7
100
AcDbLine
 10
75.454521
 20
42.507863
 30
0.0
 11
75.461573
 21
42.576245
 31
0.0
  0
LINE
  5
326
330
2FC
100
AcDbEntity
  8
0
  6
CONTINUOUS
 62
     7
100
AcDbLine
 10
75.461573
 20
42.576245
 30
0.0
 11
75.47536
 21
42.713092
 31
0.0
  0
LINE
  5
327
330
2FC
100
AcDbEntity
  8
0
  6
CONTINUOUS
 62
     7
100
AcDbLine
 10
75.47536
 20
42.713092
 30
0.0
 11
75.488917
 21
42.85
 31
0.0
  0
ENDBLK
  5
2FE
330
2FC
100
AcDbEntity
  8
0
100
AcDbBlockEnd
  0
BLOCK
  5
329
330
328
100
AcDbEntity
  8
0
100
AcDbBlockBegin
  2
BLKF020
 70
     0
 71
     0
 10
0.0
 20
0.0
 30
0.0
  3
BLKF020
  1

  0
LINE
  5
32C
330
328
100
AcDbEntity
  8
0
  6
CONTINUOUS
 62
     7
100
AcDbLine
 10
74.988923
 20
38.903847
 30
0.0
 11
75.011824
 21
38.867559
 31
0.0
  0
LINE
  5
32D
330
328
100
AcDbEntity
  8
0
  6
CONTINUOUS
 62
     7
100
AcDbLine
 10
75.011824
 20
38.867559
 30
0.0
 11
75.034681
 21
38.831262
 31
0.0
  0
LINE
  5
32E
330
328
100
AcDbEntity
  8
0
  6
CONTINUOUS
 62
     7
100
AcDbLine
 10
75.034681
 20
38.831262
 30
0.0
 11
75.057453
 21
38.794947
 31
0.0
  0
LINE
  5
32F
330
328
100
AcDbEntity
  8
0
  6
CONTINUOUS
 62
     7
100
AcDbLine
 10
75.057453
 20
38.794947
 30
0.0
 11
75.080097
 21
38.758606
 31
0.0
  0
LINE
  5
330
330
328
100
AcDbEntity
  8
0
  6
CONTINUOUS
 62
     7
100
AcDbLine
 10
75.080097
 20
38.758606
 30
0.0
 11
75.091358
 21
38.740422
 31
0.0
  0
LINE
  5
331
330
328
100
AcDbEntity
  8
0
  6
CONTINUOUS
 62
     7
100
AcDbLine
 10
75.091358
 20
38.740422
 30
0.0
 11
75.10257
 21
38.722229
 31
0.0
  0
LINE
  5
332
330
328
100
AcDbEntity
  8
0
  6
CONTINUOUS
 62
     7
100
AcDbLine
 10
75.10257
 20
38.722229
 30
0.0
 11
75.113729
 21
38.704025
 31
0.0
  0
LINE
  5
333
330
328
100
AcDbEntity
  8
0
  6
CONTINUOUS
 62
     7
100
AcDbLine
 10
75.113729
 20
38.704025
 30
0.0
 11
75.124829
 21
38.685809
 31
0.0
  0
LINE
  5
334
330
328
100
AcDbEntity
  8
0
  6
CONTINUOUS
 62
     7
100
AcDbLine
 10
75.124829
 20
38.685809
 30
0.0
 11
75.135864
 21
38.66758
 31
0.0
  0
LINE
  5
335
330
328
100
AcDbEntity
  8
0
  6
CONTINUOUS
 62
     7
100
AcDbLine
 10
75.135864
 20
38.66758
 30
0.0
 11
75.146831
 21
38.649336
 31
0.0
  0
LINE
  5
336
330
328
100
AcDbEntity
  8
0
  6
CONTINUOUS
 62
     7
100
AcDbLine
 10
75.146831
 20
38.649336
 30
0.0
 11
75.157722
 21
38.631077
 31
0.0
  0
LINE
  5
337
330
328
100
AcDbEntity
  8
0
  6
CONTINUOUS
 62
     7
100
AcDbLine
 10
75.157722
 20
38.631077
 30
0.0
 11
75.168534
 21
38.612801
 31
0.0
  0
LINE
  5
338
330
328
100
AcDbEntity
  8
0
  6
CONTINUOUS
 62
     7
100
AcDbLine
 10
75.168534
 20
38.612801
 30
0.0
 11
75.179259
 21
38.594508
 31
0.0
  0
LINE
  5
339
330
328
100
AcDbEntity
  8
0
  6
CONTINUOUS
 62
     7
100
AcDbLine
 10
75.179259
 20
38.594508
 30
0.0
 11
75.189894
 21
38.576197
 31
0.0
  0
LINE
  5
33A
330
328
100
AcDbEntity
  8
0
  6
CONTINUOUS
 62
     7
100
AcDbLine
 10
75.189894
 20
38.576197
 30
0.0
 11
75.200433
 21
38.557865
 31
0.0
  0
LINE
  5
33B
330
328
100
AcDbEntity
  8
0
  6
CONTINUOUS
 62
     7
100
AcDbLine
 10
75.200433
 20
38.557865
 30
0.0
 11
75.21087
 21
38.539513
 31
0.0
  0
LINE
  5
33C
330
328
100
AcDbEntity
  8
0
  6
CONTINUOUS
 62
     7
100
AcDbLine
 10
75.21087
 20
38.539513
 30
0.0
 11
75.2212
 21
38.521138
 31
0.0
  0
LINE
  5
33D
330
328
100
AcDbEntity
  8
0
  6
CONTINUOUS
 62
     7
100
AcDbLine
 10
75.2212
 20
38.521138
 30
0.0
 11
75.231417
 21
38.502741
 31
0.0
  0
LINE
  5
33E
330
328
100
AcDbEntity
  8
0
  6
CONTINUOUS
 62
     7
100
AcDbLine
 10
75.231417
 20
38.502741
 30
0.0
 11
75.241518
 21
38.484319
 31
0.0
  0
LINE
  5
33F
330
328
100
AcDbEntity
  8
0
  6
CONTINUOUS
 62
     7
100
AcDbLine
 10
75.241518
 20
38.484319
 30
0.0
 11
75.251495
 21
38.465873
 31
0.0
  0
LINE
  5
340
330
328
100
AcDbEntity
  8
0
  6
CONTINUOUS
 62
     7
100
AcDbLine
 10
75.251495
 20
38.465873
 30
0.0
 11
75.261344
 21
38.447399
 31
0.0
  0
LINE
  5
341
330
328
100
AcDbEntity
  8
0
  6
CONTINUOUS
 62
     7
100
AcDbLine
 10
75.261344
 20
38.447399
 30
0.0
 11
75.271059
 21
38.428899
 31
0.0
  0
LINE
  5
342
330
328
100
AcDbEntity
  8
0
  6
CONTINUOUS
 62
     7
100
AcDbLine
 10
75.271059
 20
38.428899
 30
0.0
 11
75.280635
 21
38.41037
 31
0.0
  0
LINE
  5
343
330
328
100
AcDbEntity
  8
0
  6
CONTINUOUS
 62
     7
100
AcDbLine
 10
75.280635
 20
38.41037
 30
0.0
 11
75.290067
 21
38.391811
 31
0.0
  0
LINE
  5
344
330
328
100
AcDbEntity
  8
0
  6
CONTINUOUS
 62
     7
100
AcDbLine
 10
75.290067
 20
38.391811
 30
0.0
 11
75.299349
 21
38.373221
 31
0.0
  0
LINE
  5
345
330
328
100
AcDbEntity
  8
0
  6
CONTINUOUS
 62
     7
100
AcDbLine
 10
75.299349
 20
38.373221
 30
0.0
 11
75.308476
 21
38.3546
 31
0.0
  0
LINE
  5
346
330
328
100
AcDbEntity
  8
0
  6
CONTINUOUS
 62
     7
100
AcDbLine
 10
75.308476
 20
38.3546
 30
0.0
 11
75.317443
 21
38.335945
 31
0.0
  0
LINE
  5
347
330
328
100
AcDbEntity
  8
0
  6
CONTINUOUS
 62
     7
100
AcDbLine
 10
75.317443
 20
38.335945
 30
0.0
 11
75.326244
 21
38.317257
 31
0.0
  0
LINE
  5
348
330
328
100
AcDbEntity
  8
0
  6
CONTINUOUS
 62
     7
100
AcDbLine
 10
75.326244
 20
38.317257
 30
0.0
 11
75.334874
 21
38.298533
 31
0.0
  0
LINE
  5
349
330
328
100
AcDbEntity
  8
0
  6
CONTINUOUS
 62
     7
100
AcDbLine
 10
75.334874
 20
38.298533
 30
0.0
 11
75.343327
 21
38.279773
 31
0.0
  0
LINE
  5
34A
330
328
100
AcDbEntity
  8
0
  6
CONTINUOUS
 62
     7
100
AcDbLine
 10
75.343327
 20
38.279773
 30
0.0
 11
75.351599
 21
38.260976
 31
0.0
  0
LINE
  5
34B
330
328
100
AcDbEntity
  8
0
  6
CONTINUOUS
 62
     7
100
AcDbLine
 10
75.351599
 20
38.260976
 30
0.0
 11
75.359683
 21
38.242141
 31
0.0
  0
LINE
  5
34C
330
328
100
AcDbEntity
  8
0
  6
CONTINUOUS
 62
     7
100
AcDbLine
 10
75.359683
 20
38.242141
 30
0.0
 11
75.367575
 21
38.223265
 31
0.0
  0
LINE
  5
34D
330
328
100
AcDbEntity
  8
0
  6
CONTINUOUS
 62
     7
100
AcDbLine
 10
75.367575
 20
38.223265
 30
0.0
 11
75.375269
 21
38.20435
 31
0.0
  0
LINE
  5
34E
330
328
100
AcDbEntity
  8
0
  6
CONTINUOUS
 62
     7
100
AcDbLine
 10
75.375269
 20
38.20435
 30
0.0
 11
75.38276
 21
38.185392
 31
0.0
  0
LINE
  5
34F
330
328
100
AcDbEntity
  8
0
  6
CONTINUOUS
 62
     7
100
AcDbLine
 10
75.38276
 20
38.185392
 30
0.0
 11
75.390043
 21
38.166392
 31
0.0
  0
LINE
  5
350
330
328
100
AcDbEntity
  8
0
  6
CONTINUOUS
 62
     7
100
AcDbLine
 10
75.390043
 20
38.166392
 30
0.0
 11
75.397111
 21
38.147347
 31
0.0
  0
LINE
  5
351
330
328
100
AcDbEntity
  8
0
  6
CONTINUOUS
 62
     7
100
AcDbLine
 10
75.397111
 20
38.147347
 30
0.0
 11
75.403961
 21
38.128258
 31
0.0
  0
LINE
  5
352
330
328
100
AcDbEntity
  8
0
  6
CONTINUOUS
 62
     7
100
AcDbLine
 10
75.403961
 20
38.128258
 30
0.0
 11
75.410586
 21
38.109123
 31
0.0
  0
LINE
  5
353
330
328
100
AcDbEntity
  8
0
  6
CONTINUOUS
 62
     7
100
AcDbLine
 10
75.410586
 20
38.109123
 30
0.0
 11
75.416981
 21
38.08994
 31
0.0
  0
LINE
  5
354
330
328
100
AcDbEntity
  8
0
  6
CONTINUOUS
 62
     7
100
AcDbLine
 10
75.416981
 20
38.08994
 30
0.0
 11
75.42314
 21
38.070709
 31
0.0
  0
LINE
  5
355
330
328
100
AcDbEntity
  8
0
  6
CONTINUOUS
 62
     7
100
AcDbLine
 10
75.42314
 20
38.070709
 30
0.0
 11
75.429059
 21
38.051428
 31
0.0
  0
LINE
  5
356
330
328
100
AcDbEntity
  8
0
  6
CONTINUOUS
 62
     7
100
AcDbLine
 10
75.429059
 20
38.051428
 30
0.0
 11
75.434733
 21
38.032097
 31
0.0
  0
LINE
  5
357
330
328
100
AcDbEntity
  8
0
  6
CONTINUOUS
 62
     7
100
AcDbLine
 10
75.434733
 20
38.032097
 30
0.0
 11
75.440154
 21
38.012715
 31
0.0
  0
LINE
  5
358
330
328
100
AcDbEntity
  8
0
  6
CONTINUOUS
 62
     7
100
AcDbLine
 10
75.440154
 20
38.012715
 30
0.0
 11
75.44532
 21
37.99328
 31
0.0
  0
LINE
  5
359
330
328
100
AcDbEntity
  8
0
  6
CONTINUOUS
 62
     7
100
AcDbLine
 10
75.44532
 20
37.99328
 30
0.0
 11
75.450223
 21
37.97379
 31
0.0
  0
LINE
  5
35A
330
328
100
AcDbEntity
  8
0
  6
CONTINUOUS
 62
     7
100
AcDbLine
 10
75.450223
 20
37.97379
 30
0.0
 11
75.454859
 21
37.954246
 31
0.0
  0
LINE
  5
35B
330
328
100
AcDbEntity
  8
0
  6
CONTINUOUS
 62
     7
100
AcDbLine
 10
75.454859
 20
37.954246
 30
0.0
 11
75.459222
 21
37.934646
 31
0.0
  0
LINE
  5
35C
330
328
100
AcDbEntity
  8
0
  6
CONTINUOUS
 62
     7
100
AcDbLine
 10
75.459222
 20
37.934646
 30
0.0
 11
75.463307
 21
37.914989
 31
0.0
  0
LINE
  5
35D
330
328
100
AcDbEntity
  8
0
  6
CONTINUOUS
 62
     7
100
AcDbLine
 10
75.463307
 20
37.914989
 30
0.0
 11
75.467109
 21
37.895274
 31
0.0
  0
LINE
  5
35E
330
328
100
AcDbEntity
  8
0
  6
CONTINUOUS
 62
     7
100
AcDbLine
 10
75.467109
 20
37.895274
 30
0.0
 11
75.470622
 21
37.875499
 31
0.0
  0
LINE
  5
35F
330
328
100
AcDbEntity
  8
0
  6
CONTINUOUS
 62
     7
100
AcDbLine
 10
75.470622
 20
37.875499
 30
0.0
 11
75.473841
 21
37.855664
 31
0.0
  0
LINE
  5
360
330
328
100
AcDbEntity
  8
0
  6
CONTINUOUS
 62
     7
100
AcDbLine
 10
75.473841
 20
37.855664
 30
0.0
 11
75.476761
 21
37.835767
 31
0.0
  0
LINE
  5
361
330
328
100
AcDbEntity
  8
0
  6
CONTINUOUS
 62
     7
100
AcDbLine
 10
75.476761
 20
37.835767
 30
0.0
 11
75.479376
 21
37.815808
 31
0.0
  0
LINE
  5
362
330
328
100
AcDbEntity
  8
0
  6
CONTINUOUS
 62
     7
100
AcDbLine
 10
75.479376
 20
37.815808
 30
0.0
 11
75.48168
 21
37.795785
 31
0.0
  0
LINE
  5
363
330
328
100
AcDbEntity
  8
0
  6
CONTINUOUS
 62
     7
100
AcDbLine
 10
75.48168
 20
37.795785
 30
0.0
 11
75.482715
 21
37.78575
 31
0.0
  0
LINE
  5
364
330
328
100
AcDbEntity
  8
0
  6
CONTINUOUS
 62
     7
100
AcDbLine
 10
75.482715
 20
37.78575
 30
0.0
 11
75.48367
 21
37.775698
 31
0.0
  0
LINE
  5
365
330
328
100
AcDbEntity
  8
0
  6
CONTINUOUS
 62
     7
100
AcDbLine
 10
75.48367
 20
37.775698
 30
0.0
 11
75.484545
 21
37.765629
 31
0.0
  0
LINE
  5
366
330
328
100
AcDbEntity
  8
0
  6
CONTINUOUS
 62
     7
100
AcDbLine
 10
75.484545
 20
37.765629
 30
0.0
 11
75.485338
 21
37.755544
 31
0.0
  0
LINE
  5
367
330
328
100
AcDbEntity
  8
0
  6
CONTINUOUS
 62
     7
100
AcDbLine
 10
75.485338
 20
37.755544
 30
0.0
 11
75.486051
 21
37.745442
 31
0.0
  0
LINE
  5
368
330
328
100
AcDbEntity
  8
0
  6
CONTINUOUS
 62
     7
100
AcDbLine
 10
75.486051
 20
37.745442
 30
0.0
 11
75.486681
 21
37.735323
 31
0.0
  0
LINE
  5
369
330
328
100
AcDbEntity
  8
0
  6
CONTINUOUS
 62
     7
100
AcDbLine
 10
75.486681
 20
37.735323
 30
0.0
 11
75.487228
 21
37.725188
 31
0.0
  0
LINE
  5
36A
330
328
100
AcDbEntity
  8
0
  6
CONTINUOUS
 62
     7
100
AcDbLine
 10
75.487228
 20
37.725188
 30
0.0
 11
75.487692
 21
37.715035
 31
0.0
  0
LINE
  5
36B
330
328
100
AcDbEntity
  8
0
  6
CONTINUOUS
 62
     7
100
AcDbLine
 10
75.487692
 20
37.715035
 30
0.0
 11
75.488071
 21
37.704865
 31
0.0
  0
LINE
  5
36C
330
328
100
AcDbEntity
  8
0
  6
CONTINUOUS
 62
     7
100
AcDbLine
 10
75.488071
 20
37.704865
 30
0.0
 11
75.488366
 21
37.694677
 31
0.0
  0
LINE
  5
36D
330
328
100
AcDbEntity
  8
0
  6
CONTINUOUS
 62
     7
100
AcDbLine
 10
75.488366
 20
37.694677
 30
0.0
 11
75.488727
 21
37.67428
 31
0.0
  0
LINE
  5
36E
330
328
100
AcDbEntity
  8
0
  6
CONTINUOUS
 62
     7
100
AcDbLine
 10
75.488727
 20
37.67428
 30
0.0
 11
75.488917
 21
37.653848
 31
0.0
  0
ENDBLK
  5
32A
330
328
100
AcDbEntity
  8
0
100
AcDbBlockEnd
  0
BLOCK
  5
376
330
375
100
AcDbEntity
  8
0
100
AcDbBlockBegin
  2
BLKF021
 70
     0
 71
     0
 10
0.0
 20
0.0
 30
0.0
  3
BLKF021
  1

  0
LINE
  5
379
330
375
100
AcDbEntity
  8
0
  6
CONTINUOUS
 62
     7
100
AcDbLine
 10
74.988923
 20
49.296152
 30
0.0
 11
75.011824
 21
49.259864
 31
0.0
  0
LINE
  5
37A
330
375
100
AcDbEntity
  8
0
  6
CONTINUOUS
 62
     7
100
AcDbLine
 10
75.011824
 20
49.259864
 30
0.0
 11
75.034681
 21
49.223567
 31
0.0
  0
LINE
  5
37B
330
375
100
AcDbEntity
  8
0
  6
CONTINUOUS
 62
     7
100
AcDbLine
 10
75.034681
 20
49.223567
 30
0.0
 11
75.057453
 21
49.187252
 31
0.0
  0
LINE
  5
37C
330
375
100
AcDbEntity
  8
0
  6
CONTINUOUS
 62
     7
100
AcDbLine
 10
75.057453
 20
49.187252
 30
0.0
 11
75.080097
 21
49.150911
 31
0.0
  0
LINE
  5
37D
330
375
100
AcDbEntity
  8
0
  6
CONTINUOUS
 62
     7
100
AcDbLine
 10
75.080097
 20
49.150911
 30
0.0
 11
75.091358
 21
49.132727
 31
0.0
  0
LINE
  5
37E
330
375
100
AcDbEntity
  8
0
  6
CONTINUOUS
 62
     7
100
AcDbLine
 10
75.091358
 20
49.132727
 30
0.0
 11
75.10257
 21
49.114534
 31
0.0
  0
LINE
  5
37F
330
375
100
AcDbEntity
  8
0
  6
CONTINUOUS
 62
     7
100
AcDbLine
 10
75.10257
 20
49.114534
 30
0.0
 11
75.113729
 21
49.09633
 31
0.0
  0
LINE
  5
380
330
375
100
AcDbEntity
  8
0
  6
CONTINUOUS
 62
     7
100
AcDbLine
 10
75.113729
 20
49.09633
 30
0.0
 11
75.124829
 21
49.078114
 31
0.0
  0
LINE
  5
381
330
375
100
AcDbEntity
  8
0
  6
CONTINUOUS
 62
     7
100
AcDbLine
 10
75.124829
 20
49.078114
 30
0.0
 11
75.135864
 21
49.059885
 31
0.0
  0
LINE
  5
382
330
375
100
AcDbEntity
  8
0
  6
CONTINUOUS
 62
     7
100
AcDbLine
 10
75.135864
 20
49.059885
 30
0.0
 11
75.146831
 21
49.041641
 31
0.0
  0
LINE
  5
383
330
375
100
AcDbEntity
  8
0
  6
CONTINUOUS
 62
     7
100
AcDbLine
 10
75.146831
 20
49.041641
 30
0.0
 11
75.157722
 21
49.023382
 31
0.0
  0
LINE
  5
384
330
375
100
AcDbEntity
  8
0
  6
CONTINUOUS
 62
     7
100
AcDbLine
 10
75.157722
 20
49.023382
 30
0.0
 11
75.168534
 21
49.005106
 31
0.0
  0
LINE
  5
385
330
375
100
AcDbEntity
  8
0
  6
CONTINUOUS
 62
     7
100
AcDbLine
 10
75.168534
 20
49.005106
 30
0.0
 11
75.179259
 21
48.986813
 31
0.0
  0
LINE
  5
386
330
375
100
AcDbEntity
  8
0
  6
CONTINUOUS
 62
     7
100
AcDbLine
 10
75.179259
 20
48.986813
 30
0.0
 11
75.189894
 21
48.968502
 31
0.0
  0
LINE
  5
387
330
375
100
AcDbEntity
  8
0
  6
CONTINUOUS
 62
     7
100
AcDbLine
 10
75.189894
 20
48.968502
 30
0.0
 11
75.200433
 21
48.95017
 31
0.0
  0
LINE
  5
388
330
375
100
AcDbEntity
  8
0
  6
CONTINUOUS
 62
     7
100
AcDbLine
 10
75.200433
 20
48.95017
 30
0.0
 11
75.21087
 21
48.931818
 31
0.0
  0
LINE
  5
389
330
375
100
AcDbEntity
  8
0
  6
CONTINUOUS
 62
     7
100
AcDbLine
 10
75.21087
 20
48.931818
 30
0.0
 11
75.2212
 21
48.913443
 31
0.0
  0
LINE
  5
38A
330
375
100
AcDbEntity
  8
0
  6
CONTINUOUS
 62
     7
100
AcDbLine
 10
75.2212
 20
48.913443
 30
0.0
 11
75.231417
 21
48.895046
 31
0.0
  0
LINE
  5
38B
330
375
100
AcDbEntity
  8
0
  6
CONTINUOUS
 62
     7
100
AcDbLine
 10
75.231417
 20
48.895046
 30
0.0
 11
75.241518
 21
48.876624
 31
0.0
  0
LINE
  5
38C
330
375
100
AcDbEntity
  8
0
  6
CONTINUOUS
 62
     7
100
AcDbLine
 10
75.241518
 20
48.876624
 30
0.0
 11
75.251495
 21
48.858178
 31
0.0
  0
LINE
  5
38D
330
375
100
AcDbEntity
  8
0
  6
CONTINUOUS
 62
     7
100
AcDbLine
 10
75.251495
 20
48.858178
 30
0.0
 11
75.261344
 21
48.839704
 31
0.0
  0
LINE
  5
38E
330
375
100
AcDbEntity
  8
0
  6
CONTINUOUS
 62
     7
100
AcDbLine
 10
75.261344
 20
48.839704
 30
0.0
 11
75.271059
 21
48.821204
 31
0.0
  0
LINE
  5
38F
330
375
100
AcDbEntity
  8
0
  6
CONTINUOUS
 62
     7
100
AcDbLine
 10
75.271059
 20
48.821204
 30
0.0
 11
75.280635
 21
48.802674
 31
0.0
  0
LINE
  5
390
330
375
100
AcDbEntity
  8
0
  6
CONTINUOUS
 62
     7
100
AcDbLine
 10
75.280635
 20
48.802674
 30
0.0
 11
75.290067
 21
48.784116
 31
0.0
  0
LINE
  5
391
330
375
100
AcDbEntity
  8
0
  6
CONTINUOUS
 62
     7
100
AcDbLine
 10
75.290067
 20
48.784116
 30
0.0
 11
75.299349
 21
48.765526
 31
0.0
  0
LINE
  5
392
330
375
100
AcDbEntity
  8
0
  6
CONTINUOUS
 62
     7
100
AcDbLine
 10
75.299349
 20
48.765526
 30
0.0
 11
75.308476
 21
48.746905
 31
0.0
  0
LINE
  5
393
330
375
100
AcDbEntity
  8
0
  6
CONTINUOUS
 62
     7
100
AcDbLine
 10
75.308476
 20
48.746905
 30
0.0
 11
75.317443
 21
48.72825
 31
0.0
  0
LINE
  5
394
330
375
100
AcDbEntity
  8
0
  6
CONTINUOUS
 62
     7
100
AcDbLine
 10
75.317443
 20
48.72825
 30
0.0
 11
75.326244
 21
48.709562
 31
0.0
  0
LINE
  5
395
330
375
100
AcDbEntity
  8
0
  6
CONTINUOUS
 62
     7
100
AcDbLine
 10
75.326244
 20
48.709562
 30
0.0
 11
75.334874
 21
48.690838
 31
0.0
  0
LINE
  5
396
330
375
100
AcDbEntity
  8
0
  6
CONTINUOUS
 62
     7
100
AcDbLine
 10
75.334874
 20
48.690838
 30
0.0
 11
75.343327
 21
48.672078
 31
0.0
  0
LINE
  5
397
330
375
100
AcDbEntity
  8
0
  6
CONTINUOUS
 62
     7
100
AcDbLine
 10
75.343327
 20
48.672078
 30
0.0
 11
75.351599
 21
48.653281
 31
0.0
  0
LINE
  5
398
330
375
100
AcDbEntity
  8
0
  6
CONTINUOUS
 62
     7
100
AcDbLine
 10
75.351599
 20
48.653281
 30
0.0
 11
75.359683
 21
48.634445
 31
0.0
  0
LINE
  5
399
330
375
100
AcDbEntity
  8
0
  6
CONTINUOUS
 62
     7
100
AcDbLine
 10
75.359683
 20
48.634445
 30
0.0
 11
75.367575
 21
48.61557
 31
0.0
  0
LINE
  5
39A
330
375
100
AcDbEntity
  8
0
  6
CONTINUOUS
 62
     7
100
AcDbLine
 10
75.367575
 20
48.61557
 30
0.0
 11
75.375269
 21
48.596654
 31
0.0
  0
LINE
  5
39B
330
375
100
AcDbEntity
  8
0
  6
CONTINUOUS
 62
     7
100
AcDbLine
 10
75.375269
 20
48.596654
 30
0.0
 11
75.38276
 21
48.577697
 31
0.0
  0
LINE
  5
39C
330
375
100
AcDbEntity
  8
0
  6
CONTINUOUS
 62
     7
100
AcDbLine
 10
75.38276
 20
48.577697
 30
0.0
 11
75.390043
 21
48.558696
 31
0.0
  0
LINE
  5
39D
330
375
100
AcDbEntity
  8
0
  6
CONTINUOUS
 62
     7
100
AcDbLine
 10
75.390043
 20
48.558696
 30
0.0
 11
75.397111
 21
48.539652
 31
0.0
  0
LINE
  5
39E
330
375
100
AcDbEntity
  8
0
  6
CONTINUOUS
 62
     7
100
AcDbLine
 10
75.397111
 20
48.539652
 30
0.0
 11
75.403961
 21
48.520563
 31
0.0
  0
LINE
  5
39F
330
375
100
AcDbEntity
  8
0
  6
CONTINUOUS
 62
     7
100
AcDbLine
 10
75.403961
 20
48.520563
 30
0.0
 11
75.410586
 21
48.501427
 31
0.0
  0
LINE
  5
3A0
330
375
100
AcDbEntity
  8
0
  6
CONTINUOUS
 62
     7
100
AcDbLine
 10
75.410586
 20
48.501427
 30
0.0
 11
75.416981
 21
48.482245
 31
0.0
  0
LINE
  5
3A1
330
375
100
AcDbEntity
  8
0
  6
CONTINUOUS
 62
     7
100
AcDbLine
 10
75.416981
 20
48.482245
 30
0.0
 11
75.42314
 21
48.463014
 31
0.0
  0
LINE
  5
3A2
330
375
100
AcDbEntity
  8
0
  6
CONTINUOUS
 62
     7
100
AcDbLine
 10
75.42314
 20
48.463014
 30
0.0
 11
75.429059
 21
48.443733
 31
0.0
  0
LINE
  5
3A3
330
375
100
AcDbEntity
  8
0
  6
CONTINUOUS
 62
     7
100
AcDbLine
 10
75.429059
 20
48.443733
 30
0.0
 11
75.434733
 21
48.424402
 31
0.0
  0
LINE
  5
3A4
330
375
100
AcDbEntity
  8
0
  6
CONTINUOUS
 62
     7
100
AcDbLine
 10
75.434733
 20
48.424402
 30
0.0
 11
75.440154
 21
48.40502
 31
0.0
  0
LINE
  5
3A5
330
375
100
AcDbEntity
  8
0
  6
CONTINUOUS
 62
     7
100
AcDbLine
 10
75.440154
 20
48.40502
 30
0.0
 11
75.44532
 21
48.385584
 31
0.0
  0
LINE
  5
3A6
330
375
100
AcDbEntity
  8
0
  6
CONTINUOUS
 62
     7
100
AcDbLine
 10
75.44532
 20
48.385584
 30
0.0
 11
75.450223
 21
48.366095
 31
0.0
  0
LINE
  5
3A7
330
375
100
AcDbEntity
  8
0
  6
CONTINUOUS
 62
     7
100
AcDbLine
 10
75.450223
 20
48.366095
 30
0.0
 11
75.454859
 21
48.346551
 31
0.0
  0
LINE
  5
3A8
330
375
100
AcDbEntity
  8
0
  6
CONTINUOUS
 62
     7
100
AcDbLine
 10
75.454859
 20
48.346551
 30
0.0
 11
75.459222
 21
48.326951
 31
0.0
  0
LINE
  5
3A9
330
375
100
AcDbEntity
  8
0
  6
CONTINUOUS
 62
     7
100
AcDbLine
 10
75.459222
 20
48.326951
 30
0.0
 11
75.463307
 21
48.307294
 31
0.0
  0
LINE
  5
3AA
330
375
100
AcDbEntity
  8
0
  6
CONTINUOUS
 62
     7
100
AcDbLine
 10
75.463307
 20
48.307294
 30
0.0
 11
75.467109
 21
48.287579
 31
0.0
  0
LINE
  5
3AB
330
375
100
AcDbEntity
  8
0
  6
CONTINUOUS
 62
     7
100
AcDbLine
 10
75.467109
 20
48.287579
 30
0.0
 11
75.470622
 21
48.267804
 31
0.0
  0
LINE
  5
3AC
330
375
100
AcDbEntity
  8
0
  6
CONTINUOUS
 62
     7
100
AcDbLine
 10
75.470622
 20
48.267804
 30
0.0
 11
75.473841
 21
48.247969
 31
0.0
  0
LINE
  5
3AD
330
375
100
AcDbEntity
  8
0
  6
CONTINUOUS
 62
     7
100
AcDbLine
 10
75.473841
 20
48.247969
 30
0.0
 11
75.476761
 21
48.228072
 31
0.0
  0
LINE
  5
3AE
330
375
100
AcDbEntity
  8
0
  6
CONTINUOUS
 62
     7
100
AcDbLine
 10
75.476761
 20
48.228072
 30
0.0
 11
75.479376
 21
48.208113
 31
0.0
  0
LINE
  5
3AF
330
375
100
AcDbEntity
  8
0
  6
CONTINUOUS
 62
     7
100
AcDbLine
 10
75.479376
 20
48.208113
 30
0.0
 11
75.48168
 21
48.18809
 31
0.0
  0
LINE
  5
3B0
330
375
100
AcDbEntity
  8
0
  6
CONTINUOUS
 62
     7
100
AcDbLine
 10
75.48168
 20
48.18809
 30
0.0
 11
75.482715
 21
48.178054
 31
0.0
  0
LINE
  5
3B1
330
375
100
AcDbEntity
  8
0
  6
CONTINUOUS
 62
     7
100
AcDbLine
 10
75.482715
 20
48.178054
 30
0.0
 11
75.48367
 21
48.168002
 31
0.0
  0
LINE
  5
3B2
330
375
100
AcDbEntity
  8
0
  6
CONTINUOUS
 62
     7
100
AcDbLine
 10
75.48367
 20
48.168002
 30
0.0
 11
75.484545
 21
48.157934
 31
0.0
  0
LINE
  5
3B3
330
375
100
AcDbEntity
  8
0
  6
CONTINUOUS
 62
     7
100
AcDbLine
 10
75.484545
 20
48.157934
 30
0.0
 11
75.485338
 21
48.147849
 31
0.0
  0
LINE
  5
3B4
330
375
100
AcDbEntity
  8
0
  6
CONTINUOUS
 62
     7
100
AcDbLine
 10
75.485338
 20
48.147849
 30
0.0
 11
75.486051
 21
48.137747
 31
0.0
  0
LINE
  5
3B5
330
375
100
AcDbEntity
  8
0
  6
CONTINUOUS
 62
     7
100
AcDbLine
 10
75.486051
 20
48.137747
 30
0.0
 11
75.486681
 21
48.127628
 31
0.0
  0
LINE
  5
3B6
330
375
100
AcDbEntity
  8
0
  6
CONTINUOUS
 62
     7
100
AcDbLine
 10
75.486681
 20
48.127628
 30
0.0
 11
75.487228
 21
48.117492
 31
0.0
  0
LINE
  5
3B7
330
375
100
AcDbEntity
  8
0
  6
CONTINUOUS
 62
     7
100
AcDbLine
 10
75.487228
 20
48.117492
 30
0.0
 11
75.487692
 21
48.107339
 31
0.0
  0
LINE
  5
3B8
330
375
100
AcDbEntity
  8
0
  6
CONTINUOUS
 62
     7
100
AcDbLine
 10
75.487692
 20
48.107339
 30
0.0
 11
75.488071
 21
48.097169
 31
0.0
  0
LINE
  5
3B9
330
375
100
AcDbEntity
  8
0
  6
CONTINUOUS
 62
     7
100
AcDbLine
 10
75.488071
 20
48.097169
 30
0.0
 11
75.488366
 21
48.086982
 31
0.0
  0
LINE
  5
3BA
330
375
100
AcDbEntity
  8
0
  6
CONTINUOUS
 62
     7
100
AcDbLine
 10
75.488366
 20
48.086982
 30
0.0
 11
75.488727
 21
48.066585
 31
0.0
  0
LINE
  5
3BB
330
375
100
AcDbEntity
  8
0
  6
CONTINUOUS
 62
     7
100
AcDbLine
 10
75.488727
 20
48.066585
 30
0.0
 11
75.488917
 21
48.046152
 31
0.0
  0
ENDBLK
  5
377
330
375
100
AcDbEntity
  8
0
100
AcDbBlockEnd
  0
BLOCK
  5
3C3
330
3C2
100
AcDbEntity
  8
0
100
AcDbBlockBegin
  2
BLKF022
 70
     0
 71
     0
 10
0.0
 20
0.0
 30
0.0
  3
BLKF022
  1

  0
LINE
  5
3C6
330
3C2
100
AcDbEntity
  8
CSLAYER2
  6
CONTINUOUS
 62
     3
100
AcDbLine
 10
36.288916
 20
27.658574
 30
0.0
 11
34.288916
 21
28.194472
 31
0.0
  0
LINE
  5
3C7
330
3C2
100
AcDbEntity
  8
CSLAYER2
  6
CONTINUOUS
 62
     3
100
AcDbLine
 10
34.288916
 20
28.194472
 30
0.0
 11
36.288916
 21
28.73037
 31
0.0
  0
LINE
  5
3C8
330
3C2
100
AcDbEntity
  8
CSLAYER2
  6
CONTINUOUS
 62
     3
100
AcDbLine
 10
34.288916
 20
28.194472
 30
0.0
 11
36.288916
 21
28.194472
 31
0.0
  0
LINE
  5
3C9
330
3C2
100
AcDbEntity
  8
CSLAYER2
  6
CONTINUOUS
 62
     3
100
AcDbLine
 10
77.488916
 20
28.73037
 30
0.0
 11
79.488916
 21
28.194472
 31
0.0
  0
LINE
  5
3CA
330
3C2
100
AcDbEntity
  8
CSLAYER2
  6
CONTINUOUS
 62
     3
100
AcDbLine
 10
79.488916
 20
28.194472
 30
0.0
 11
77.488916
 21
27.658574
 31
0.0
  0
LINE
  5
3CB
330
3C2
100
AcDbEntity
  8
CSLAYER2
  6
CONTINUOUS
 62
     3
100
AcDbLine
 10
79.488916
 20
28.194472
 30
0.0
 11
77.488916
 21
28.194472
 31
0.0
  0
LINE
  5
3CC
330
3C2
100
AcDbEntity
  8
CSLAYER2
  6
CONTINUOUS
 62
     3
100
AcDbLine
 10
34.288916
 20
36.44
 30
0.0
 11
34.288916
 21
27.394472
 31
0.0
  0
LINE
  5
3CD
330
3C2
100
AcDbEntity
  8
CSLAYER2
  6
CONTINUOUS
 62
     3
100
AcDbLine
 10
79.488916
 20
37.643848
 30
0.0
 11
79.488916
 21
27.394472
 31
0.0
  0
LINE
  5
3CE
330
3C2
100
AcDbEntity
  8
CSLAYER2
  6
CONTINUOUS
 62
     3
100
AcDbLine
 10
34.288916
 20
28.194472
 30
0.0
 11
79.488916
 21
28.194472
 31
0.0
  0
TEXT
  5
3CF
330
3C2
100
AcDbEntity
  8
CSLAYER2
 62
     3
100
AcDbText
 10
49.836338
 20
29.061676
 30
0.0
 40
3.0
  1
(45.2)
 41
0.938298
  7
ED_VECTOR
 72
     5
 11
62.436337
 21
29.061676
 31
0.0
100
AcDbText
  0
ENDBLK
  5
3C4
330
3C2
100
AcDbEntity
  8
0
100
AcDbBlockEnd
  0
BLOCK
  5
3D1
330
3D0
100
AcDbEntity
  8
0
100
AcDbBlockBegin
  2
BLKF023
 70
     0
 71
     0
 10
0.0
 20
0.0
 30
0.0
  3
BLKF023
  1

  0
LINE
  5
3D4
330
3D0
100
AcDbEntity
  8
CSLAYER2
  6
CONTINUOUS
 62
     3
100
AcDbLine
 10
36.288916
 20
20.264102
 30
0.0
 11
34.288916
 21
20.8
 31
0.0
  0
LINE
  5
3D5
330
3D0
100
AcDbEntity
  8
CSLAYER2
  6
CONTINUOUS
 62
     3
100
AcDbLine
 10
34.288916
 20
20.8
 30
0.0
 11
36.288916
 21
21.335898
 31
0.0
  0
LINE
  5
3D6
330
3D0
100
AcDbEntity
  8
CSLAYER2
  6
CONTINUOUS
 62
     3
100
AcDbLine
 10
34.288916
 20
20.8
 30
0.0
 11
36.288916
 21
20.8
 31
0.0
  0
LINE
  5
3D7
330
3D0
100
AcDbEntity
  8
CSLAYER2
  6
CONTINUOUS
 62
     3
100
AcDbLine
 10
273.28496
 20
21.335898
 30
0.0
 11
275.28496
 21
20.8
 31
0.0
  0
LINE
  5
3D8
330
3D0
100
AcDbEntity
  8
CSLAYER2
  6
CONTINUOUS
 62
     3
100
AcDbLine
 10
275.28496
 20
20.8
 30
0.0
 11
273.28496
 21
20.264102
 31
0.0
  0
LINE
  5
3D9
330
3D0
100
AcDbEntity
  8
CSLAYER2
  6
CONTINUOUS
 62
     3
100
AcDbLine
 10
275.28496
 20
20.8
 30
0.0
 11
273.28496
 21
20.8
 31
0.0
  0
LINE
  5
3DA
330
3D0
100
AcDbEntity
  8
CSLAYER2
  6
CONTINUOUS
 62
     3
100
AcDbLine
 10
34.288916
 20
36.44
 30
0.0
 11
34.288916
 21
20.0
 31
0.0
  0
LINE
  5
3DB
330
3D0
100
AcDbEntity
  8
CSLAYER2
  6
CONTINUOUS
 62
     3
100
AcDbLine
 10
275.28496
 20
35.99
 30
0.0
 11
275.28496
 21
20.0
 31
0.0
  0
LINE
  5
3DC
330
3D0
100
AcDbEntity
  8
CSLAYER2
  6
CONTINUOUS
 62
     3
100
AcDbLine
 10
34.288916
 20
20.8
 30
0.0
 11
275.28496
 21
20.8
 31
0.0
  0
TEXT
  5
3DD
330
3D0
100
AcDbEntity
  8
CSLAYER2
 62
     3
100
AcDbText
 10
144.957764
 20
21.667204
 30
0.0
 40
3.0
  1
4m、6m、8m
 41
0.646154
  7
ED_VECTOR
 72
     5
 11
161.757763
 21
21.667204
 31
0.0
100
AcDbText
  0
ENDBLK
  5
3D2
330
3D0
100
AcDbEntity
  8
0
100
AcDbBlockEnd
  0
BLOCK
  5
3DF
330
3DE
100
AcDbEntity
  8
0
100
AcDbBlockBegin
  2
BLKF024
 70
     0
 71
     0
 10
0.0
 20
0.0
 30
0.0
  3
BLKF024
  1

  0
LINE
  5
3E2
330
3DE
100
AcDbEntity
  8
CSLAYER2
  6
CONTINUOUS
 62
     3
100
AcDbLine
 10
23.331305
 20
53.1
 30
0.0
 11
23.867203
 21
55.1
 31
0.0
  0
LINE
  5
3E3
330
3DE
100
AcDbEntity
  8
CSLAYER2
  6
CONTINUOUS
 62
     3
100
AcDbLine
 10
23.867203
 20
55.1
 30
0.0
 11
24.403101
 21
53.1
 31
0.0
  0
LINE
  5
3E4
330
3DE
100
AcDbEntity
  8
CSLAYER2
  6
CONTINUOUS
 62
     3
100
AcDbLine
 10
23.867203
 20
55.1
 30
0.0
 11
23.867203
 21
53.1
 31
0.0
  0
LINE
  5
3E5
330
3DE
100
AcDbEntity
  8
CSLAYER2
  6
CONTINUOUS
 62
     3
100
AcDbLine
 10
24.403101
 20
38.2
 30
0.0
 11
23.867203
 21
36.2
 31
0.0
  0
LINE
  5
3E6
330
3DE
100
AcDbEntity
  8
CSLAYER2
  6
CONTINUOUS
 62
     3
100
AcDbLine
 10
23.867203
 20
36.2
 30
0.0
 11
23.331305
 21
38.2
 31
0.0
  0
LINE
  5
3E7
330
3DE
100
AcDbEntity
  8
CSLAYER2
  6
CONTINUOUS
 62
     3
100
AcDbLine
 10
23.867203
 20
36.2
 30
0.0
 11
23.867203
 21
38.2
 31
0.0
  0
LINE
  5
3E8
330
3DE
100
AcDbEntity
  8
CSLAYER2
  6
CONTINUOUS
 62
     3
100
AcDbLine
 10
51.778916
 20
55.1
 30
0.0
 11
23.067203
 21
55.1
 31
0.0
  0
LINE
  5
3E9
330
3DE
100
AcDbEntity
  8
CSLAYER2
  6
CONTINUOUS
 62
     3
100
AcDbLine
 10
51.778916
 20
36.2
 30
0.0
 11
23.067203
 21
36.2
 31
0.0
  0
LINE
  5
3EA
330
3DE
100
AcDbEntity
  8
CSLAYER2
  6
CONTINUOUS
 62
     3
100
AcDbLine
 10
23.867203
 20
55.1
 30
0.0
 11
23.867203
 21
36.2
 31
0.0
  0
TEXT
  5
3EB
330
3DE
100
AcDbEntity
  8
CSLAYER2
 62
     3
100
AcDbText
 10
23.0
 20
39.96854
 30
0.0
 40
3.0
  1
%%c
 50
90.0
 41
0.864706
  7
ED_VECTOR
 72
     5
 11
23.0
 21
42.06854
 31
0.0
100
AcDbText
  0
TEXT
  5
3EC
330
3DE
100
AcDbEntity
  8
CSLAYER2
 62
     3
100
AcDbText
 10
23.0
 20
43.285625
 30
0.0
 40
3.0
  1
18.9
 50
90.0
 41
0.890909
  7
ED_VECTOR
 72
     5
 11
23.0
 21
51.685625
 31
0.0
100
AcDbText
  0
ENDBLK
  5
3E0
330
3DE
100
AcDbEntity
  8
0
100
AcDbBlockEnd
  0
ENDSEC
  0
SECTION
  2
ENTITIES
  0
INSERT
  5
72
330
1F
100
AcDbEntity
  8
0
100
AcDbBlockReference
  2
BLKF011
 10
0.0
 20
0.0
 30
0.0
  0
LINE
  5
113
330
1F
100
AcDbEntity
  8
0
  6
CONTINUOUS
 62
     7
100
AcDbLine
 10
215.284969
 20
54.25
 30
0.0
 11
143.17581
 21
54.25
 31
0.0
  0
LINE
  5
114
330
1F
100
AcDbEntity
  8
0
  6
CONTINUOUS
 62
     7
100
AcDbLine
 10
142.686985
 20
50.25
 30
0.0
 11
215.284969
 21
50.25
 31
0.0
  0
LINE
  5
115
330
1F
100
AcDbEntity
  8
0
  6
CONTINUOUS
 62
     7
100
AcDbLine
 10
253.584947
 20
33.799999
 30
0.0
 11
257.784958
 21
33.799999
 31
0.0
  0
LINE
  5
116
330
1F
100
AcDbEntity
  8
0
  6
CONTINUOUS
 62
     7
100
AcDbLine
 10
257.784958
 20
51.9
 30
0.0
 11
253.584947
 21
51.9
 31
0.0
  0
LINE
  5
117
330
1F
100
AcDbEntity
  8
0
  6
CONTINUOUS
 62
     7
100
AcDbLine
 10
260.284956
 20
33.799999
 30
0.0
 11
265.284951
 21
33.799999
 31
0.0
  0
LINE
  5
118
330
1F
100
AcDbEntity
  8
0
  6
CONTINUOUS
 62
     7
100
AcDbLine
 10
265.284951
 20
51.9
 30
0.0
 11
260.284956
 21
51.9
 31
0.0
  0
LINE
  5
119
330
1F
100
AcDbEntity
  8
0
  6
CONTINUOUS
 62
     7
100
AcDbLine
 10
248.884971
 20
33.9
 30
0.0
 11
249.384965
 21
34.399999
 31
0.0
  0
LINE
  5
11A
330
1F
100
AcDbEntity
  8
0
  6
CONTINUOUS
 62
     7
100
AcDbLine
 10
249.384965
 20
51.3
 30
0.0
 11
248.884971
 21
51.8
 31
0.0
  0
LINE
  5
11B
330
1F
100
AcDbEntity
  8
0
  6
CONTINUOUS
 62
     7
100
AcDbLine
 10
243.884946
 20
33.9
 30
0.0
 11
248.884971
 21
33.9
 31
0.0
  0
LINE
  5
11C
330
1F
100
AcDbEntity
  8
0
  6
CONTINUOUS
 62
     7
100
AcDbLine
 10
236.134972
 20
33.9
 30
0.0
 11
237.934972
 21
33.9
 31
0.0
  0
LINE
  5
11D
330
1F
100
AcDbEntity
  8
0
  6
CONTINUOUS
 62
     7
100
AcDbLine
 10
237.934972
 20
51.8
 30
0.0
 11
236.134972
 21
51.8
 31
0.0
  0
LINE
  5
11E
330
1F
100
AcDbEntity
  8
0
  6
CONTINUOUS
 62
     7
100
AcDbLine
 10
248.884971
 20
51.8
 30
0.0
 11
243.884946
 21
51.8
 31
0.0
  0
LINE
  5
11F
330
1F
100
AcDbEntity
  8
0
  6
CONTINUOUS
 62
     7
100
AcDbLine
 10
236.134972
 20
51.8
 30
0.0
 11
227.334972
 21
51.35
 31
0.0
  0
LINE
  5
120
330
1F
100
AcDbEntity
  8
0
  6
CONTINUOUS
 62
     7
100
AcDbLine
 10
227.334972
 20
34.349999
 30
0.0
 11
236.134972
 21
33.9
 31
0.0
  0
LINE
  5
121
330
1F
100
AcDbEntity
  8
0
  6
CONTINUOUS
 62
     7
100
AcDbLine
 10
257.784958
 20
34.05
 30
0.0
 11
260.284956
 21
34.05
 31
0.0
  0
LINE
  5
122
330
1F
100
AcDbEntity
  8
0
  6
CONTINUOUS
 62
     7
100
AcDbLine
 10
260.284956
 20
51.65
 30
0.0
 11
257.784958
 21
51.65
 31
0.0
  0
LINE
  5
123
330
1F
100
AcDbEntity
  8
0
  6
CONTINUOUS
 62
     7
100
AcDbLine
 10
265.284951
 20
34.05
 30
0.0
 11
266.384955
 21
34.05
 31
0.0
  0
LINE
  5
124
330
1F
100
AcDbEntity
  8
0
  6
CONTINUOUS
 62
     7
100
AcDbLine
 10
266.384955
 20
51.65
 30
0.0
 11
265.284951
 21
51.65
 31
0.0
  0
LINE
  5
125
330
1F
100
AcDbEntity
  8
0
  6
CONTINUOUS
 62
     7
100
AcDbLine
 10
252.584959
 20
34.05
 30
0.0
 11
253.584947
 21
34.05
 31
0.0
  0
LINE
  5
126
330
1F
100
AcDbEntity
  8
0
  6
CONTINUOUS
 62
     7
100
AcDbLine
 10
253.584947
 20
51.65
 30
0.0
 11
252.584959
 21
51.65
 31
0.0
  0
LINE
  5
127
330
1F
100
AcDbEntity
  8
0
  6
CONTINUOUS
 62
     7
100
AcDbLine
 10
249.384965
 20
34.399999
 30
0.0
 11
252.584959
 21
34.399999
 31
0.0
  0
LINE
  5
128
330
1F
100
AcDbEntity
  8
0
  6
CONTINUOUS
 62
     7
100
AcDbLine
 10
252.584959
 20
51.3
 30
0.0
 11
249.384965
 21
51.3
 31
0.0
  0
LINE
  5
129
330
1F
100
AcDbEntity
  8
0
  6
CONTINUOUS
 62
     7
100
AcDbLine
 10
266.384955
 20
34.85
 30
0.0
 11
270.78497
 21
34.85
 31
0.0
  0
LINE
  5
12A
330
1F
100
AcDbEntity
  8
0
  6
CONTINUOUS
 62
     7
100
AcDbLine
 10
270.78497
 20
50.85
 30
0.0
 11
266.384955
 21
50.85
 31
0.0
  0
LINE
  5
12B
330
1F
100
AcDbEntity
  8
0
  6
CONTINUOUS
 62
     7
100
AcDbLine
 10
221.284951
 20
35.35
 30
0.0
 11
227.334972
 21
35.35
 31
0.0
  0
LINE
  5
12C
330
1F
100
AcDbEntity
  8
0
  6
CONTINUOUS
 62
     7
100
AcDbLine
 10
227.334972
 20
50.35
 30
0.0
 11
221.284951
 21
50.35
 31
0.0
  0
LINE
  5
12D
330
1F
100
AcDbEntity
  8
0
  6
CONTINUOUS
 62
     7
100
AcDbLine
 10
270.78497
 20
35.999999
 30
0.0
 11
275.284971
 21
35.999999
 31
0.0
  0
LINE
  5
12E
330
1F
100
AcDbEntity
  8
0
  6
CONTINUOUS
 62
     7
100
AcDbLine
 10
275.284971
 20
49.7
 30
0.0
 11
270.78497
 21
49.7
 31
0.0
  0
LINE
  5
12F
330
1F
100
AcDbEntity
  8
0
  6
CONTINUOUS
 62
     7
100
AcDbLine
 10
143.900774
 20
38.85
 30
0.0
 11
218.28496
 21
38.85
 31
0.0
  0
LINE
  5
130
330
1F
100
AcDbEntity
  8
0
  6
CONTINUOUS
 62
     7
100
AcDbLine
 10
218.28496
 20
46.85
 30
0.0
 11
143.418289
 21
46.85
 31
0.0
  0
LINE
  5
131
330
1F
100
AcDbEntity
  8
0
  6
CONTINUOUS
 62
     7
100
AcDbLine
 10
215.284969
 20
54.25
 30
0.0
 11
215.284969
 21
50.25
 31
0.0
  0
LINE
  5
132
330
1F
100
AcDbEntity
  8
0
  6
CONTINUOUS
 62
     7
100
AcDbLine
 10
218.28496
 20
42.736348
 30
0.0
 11
218.28496
 21
42.963652
 31
0.0
  0
LINE
  5
133
330
1F
100
AcDbEntity
  8
0
  6
CONTINUOUS
 62
     7
100
AcDbLine
 10
218.28496
 20
42.963652
 30
0.0
 11
221.284951
 21
42.963652
 31
0.0
  0
LINE
  5
134
330
1F
100
AcDbEntity
  8
0
  6
CONTINUOUS
 62
     7
100
AcDbLine
 10
221.284951
 20
42.736348
 30
0.0
 11
221.284951
 21
42.963652
 31
0.0
  0
LINE
  5
135
330
1F
100
AcDbEntity
  8
0
  6
CONTINUOUS
 62
     7
100
AcDbLine
 10
221.284951
 20
42.736348
 30
0.0
 11
218.28496
 21
42.736348
 31
0.0
  0
LINE
  5
136
330
1F
100
AcDbEntity
  8
0
  6
CONTINUOUS
 62
     7
100
AcDbLine
 10
221.284951
 20
51.236348
 30
0.0
 11
218.28496
 21
51.236348
 31
0.0
  0
LINE
  5
137
330
1F
100
AcDbEntity
  8
0
  6
CONTINUOUS
 62
     7
100
AcDbLine
 10
221.284951
 20
42.963652
 30
0.0
 11
221.284951
 21
51.236348
 31
0.0
  0
LINE
  5
138
330
1F
100
AcDbEntity
  8
0
  6
CONTINUOUS
 62
     7
100
AcDbLine
 10
218.28496
 20
42.963652
 30
0.0
 11
218.28496
 21
51.236348
 31
0.0
  0
LINE
  5
139
330
1F
100
AcDbEntity
  8
0
  6
CONTINUOUS
 62
     7
100
AcDbLine
 10
218.28496
 20
34.463652
 30
0.0
 11
221.284951
 21
34.463652
 31
0.0
  0
LINE
  5
13A
330
1F
100
AcDbEntity
  8
0
  6
CONTINUOUS
 62
     7
100
AcDbLine
 10
221.284951
 20
34.463652
 30
0.0
 11
221.284951
 21
42.736348
 31
0.0
  0
LINE
  5
13B
330
1F
100
AcDbEntity
  8
0
  6
CONTINUOUS
 62
     7
100
AcDbLine
 10
218.28496
 20
34.463652
 30
0.0
 11
218.28496
 21
42.736348
 31
0.0
  0
LINE
  5
13C
330
1F
100
AcDbEntity
  8
0
  6
CONTINUOUS
 62
     7
100
AcDbLine
 10
257.784958
 20
42.85
 30
0.0
 11
257.784958
 21
51.9
 31
0.0
  0
LINE
  5
13D
330
1F
100
AcDbEntity
  8
0
  6
CONTINUOUS
 62
     7
100
AcDbLine
 10
257.784958
 20
33.799999
 30
0.0
 11
257.784958
 21
42.85
 31
0.0
  0
LINE
  5
13E
330
1F
100
AcDbEntity
  8
0
  6
CONTINUOUS
 62
     7
100
AcDbLine
 10
253.584947
 20
42.85
 30
0.0
 11
253.584947
 21
51.9
 31
0.0
  0
LINE
  5
13F
330
1F
100
AcDbEntity
  8
0
  6
CONTINUOUS
 62
     7
100
AcDbLine
 10
253.584947
 20
33.799999
 30
0.0
 11
253.584947
 21
42.85
 31
0.0
  0
LINE
  5
140
330
1F
100
AcDbEntity
  8
0
  6
CONTINUOUS
 62
     7
100
AcDbLine
 10
265.284951
 20
42.85
 30
0.0
 11
265.284951
 21
51.9
 31
0.0
  0
LINE
  5
141
330
1F
100
AcDbEntity
  8
0
  6
CONTINUOUS
 62
     7
100
AcDbLine
 10
265.284951
 20
33.799999
 30
0.0
 11
265.284951
 21
42.85
 31
0.0
  0
LINE
  5
142
330
1F
100
AcDbEntity
  8
0
  6
CONTINUOUS
 62
     7
100
AcDbLine
 10
260.284956
 20
42.85
 30
0.0
 11
260.284956
 21
51.9
 31
0.0
  0
LINE
  5
143
330
1F
100
AcDbEntity
  8
0
  6
CONTINUOUS
 62
     7
100
AcDbLine
 10
260.284956
 20
33.799999
 30
0.0
 11
260.284956
 21
42.85
 31
0.0
  0
LINE
  5
144
330
1F
100
AcDbEntity
  8
0
  6
CONTINUOUS
 62
     7
100
AcDbLine
 10
249.384965
 20
42.85
 30
0.0
 11
249.384965
 21
51.3
 31
0.0
  0
LINE
  5
145
330
1F
100
AcDbEntity
  8
0
  6
CONTINUOUS
 62
     7
100
AcDbLine
 10
249.384965
 20
34.399999
 30
0.0
 11
249.384965
 21
42.85
 31
0.0
  0
LINE
  5
146
330
1F
100
AcDbEntity
  8
0
  6
CONTINUOUS
 62
     7
100
AcDbLine
 10
248.884971
 20
42.85
 30
0.0
 11
248.884971
 21
51.8
 31
0.0
  0
LINE
  5
147
330
1F
100
AcDbEntity
  8
0
  6
CONTINUOUS
 62
     7
100
AcDbLine
 10
248.884971
 20
33.9
 30
0.0
 11
248.884971
 21
42.85
 31
0.0
  0
LINE
  5
148
330
1F
100
AcDbEntity
  8
0
  6
CONTINUOUS
 62
     7
100
AcDbLine
 10
236.134972
 20
42.85
 30
0.0
 11
236.134972
 21
51.8
 31
0.0
  0
LINE
  5
149
330
1F
100
AcDbEntity
  8
0
  6
CONTINUOUS
 62
     7
100
AcDbLine
 10
236.134972
 20
33.9
 30
0.0
 11
236.134972
 21
42.85
 31
0.0
  0
LINE
  5
14A
330
1F
100
AcDbEntity
  8
0
  6
CONTINUOUS
 62
     7
100
AcDbLine
 10
237.934972
 20
50.825
 30
0.0
 11
237.934972
 21
51.8
 31
0.0
  0
LINE
  5
14B
330
1F
100
AcDbEntity
  8
0
  6
CONTINUOUS
 62
     7
100
AcDbLine
 10
243.884946
 20
50.825
 30
0.0
 11
237.934972
 21
50.825
 31
0.0
  0
LINE
  5
14C
330
1F
100
AcDbEntity
  8
0
  6
CONTINUOUS
 62
     7
100
AcDbLine
 10
243.884946
 20
51.8
 30
0.0
 11
243.884946
 21
50.825
 31
0.0
  0
LINE
  5
14D
330
1F
100
AcDbEntity
  8
0
  6
CONTINUOUS
 62
     7
100
AcDbLine
 10
243.884946
 20
34.875
 30
0.0
 11
243.884946
 21
33.9
 31
0.0
  0
LINE
  5
14E
330
1F
100
AcDbEntity
  8
0
  6
CONTINUOUS
 62
     7
100
AcDbLine
 10
237.934972
 20
34.875
 30
0.0
 11
243.884946
 21
34.875
 31
0.0
  0
LINE
  5
14F
330
1F
100
AcDbEntity
  8
0
  6
CONTINUOUS
 62
     7
100
AcDbLine
 10
237.934972
 20
33.9
 30
0.0
 11
237.934972
 21
34.875
 31
0.0
  0
LINE
  5
150
330
1F
100
AcDbEntity
  8
0
  6
CONTINUOUS
 62
     7
100
AcDbLine
 10
227.334972
 20
42.85
 30
0.0
 11
227.334972
 21
51.35
 31
0.0
  0
LINE
  5
151
330
1F
100
AcDbEntity
  8
0
  6
CONTINUOUS
 62
     7
100
AcDbLine
 10
227.334972
 20
34.349999
 30
0.0
 11
227.334972
 21
42.85
 31
0.0
  0
LINE
  5
152
330
1F
100
AcDbEntity
  8
0
  6
CONTINUOUS
 62
     7
100
AcDbLine
 10
266.384955
 20
42.85
 30
0.0
 11
266.384955
 21
51.65
 31
0.0
  0
LINE
  5
153
330
1F
100
AcDbEntity
  8
0
  6
CONTINUOUS
 62
     7
100
AcDbLine
 10
266.384955
 20
34.05
 30
0.0
 11
266.384955
 21
42.85
 31
0.0
  0
LINE
  5
154
330
1F
100
AcDbEntity
  8
0
  6
CONTINUOUS
 62
     7
100
AcDbLine
 10
252.584959
 20
42.85
 30
0.0
 11
252.584959
 21
51.65
 31
0.0
  0
LINE
  5
155
330
1F
100
AcDbEntity
  8
0
  6
CONTINUOUS
 62
     7
100
AcDbLine
 10
252.584959
 20
34.05
 30
0.0
 11
252.584959
 21
42.85
 31
0.0
  0
LINE
  5
156
330
1F
100
AcDbEntity
  8
0
  6
CONTINUOUS
 62
     7
100
AcDbLine
 10
270.78497
 20
42.85
 30
0.0
 11
270.78497
 21
50.85
 31
0.0
  0
LINE
  5
157
330
1F
100
AcDbEntity
  8
0
  6
CONTINUOUS
 62
     7
100
AcDbLine
 10
270.78497
 20
34.85
 30
0.0
 11
270.78497
 21
42.85
 31
0.0
  0
LINE
  5
158
330
1F
100
AcDbEntity
  8
0
  6
CONTINUOUS
 62
     7
100
AcDbLine
 10
275.284971
 20
42.85
 30
0.0
 11
275.284971
 21
49.7
 31
0.0
  0
LINE
  5
159
330
1F
100
AcDbEntity
  8
0
  6
CONTINUOUS
 62
     7
100
AcDbLine
 10
275.284971
 20
35.999999
 30
0.0
 11
275.284971
 21
42.85
 31
0.0
  0
LINE
  5
15A
330
1F
100
AcDbEntity
  8
0
  6
CONTINUOUS
 62
     7
100
AcDbLine
 10
221.284951
 20
34.349999
 30
0.0
 11
218.28496
 21
34.349999
 31
0.0
  0
LINE
  5
15B
330
1F
100
AcDbEntity
  8
0
  6
CONTINUOUS
 62
     7
100
AcDbLine
 10
221.284951
 20
34.349999
 30
0.0
 11
221.284951
 21
34.463652
 31
0.0
  0
LINE
  5
15C
330
1F
100
AcDbEntity
  8
0
  6
CONTINUOUS
 62
     7
100
AcDbLine
 10
218.28496
 20
34.349999
 30
0.0
 11
218.28496
 21
34.463652
 31
0.0
  0
LINE
  5
15D
330
1F
100
AcDbEntity
  8
0
  6
CONTINUOUS
 62
     7
100
AcDbLine
 10
218.28496
 20
51.35
 30
0.0
 11
221.284951
 21
51.35
 31
0.0
  0
LINE
  5
15E
330
1F
100
AcDbEntity
  8
0
  6
CONTINUOUS
 62
     7
100
AcDbLine
 10
221.284951
 20
51.236348
 30
0.0
 11
221.284951
 21
51.35
 31
0.0
  0
LINE
  5
15F
330
1F
100
AcDbEntity
  8
0
  6
CONTINUOUS
 62
     7
100
AcDbLine
 10
218.28496
 20
51.236348
 30
0.0
 11
218.28496
 21
51.35
 31
0.0
  0
LINE
  5
160
330
1F
100
AcDbEntity
  8
0
  6
CONTINUOUS
 62
     7
100
AcDbLine
 10
141.175806
 20
54.25
 30
0.0
 11
76.688922
 21
54.25
 31
0.0
  0
LINE
  5
161
330
1F
100
AcDbEntity
  8
0
  6
CONTINUOUS
 62
     7
100
AcDbLine
 10
76.688922
 20
50.25
 30
0.0
 11
140.686981
 21
50.25
 31
0.0
  0
LINE
  5
162
330
1F
100
AcDbEntity
  8
0
  6
CONTINUOUS
 62
     7
100
AcDbLine
 10
76.688922
 20
54.75
 30
0.0
 11
68.688921
 21
54.75
 31
0.0
  0
LINE
  5
163
330
1F
100
AcDbEntity
  8
0
  6
CONTINUOUS
 62
     7
100
AcDbLine
 10
68.688921
 20
49.75
 30
0.0
 11
76.688922
 21
49.75
 31
0.0
  0
LINE
  5
164
330
1F
100
AcDbEntity
  8
0
  6
CONTINUOUS
 62
     7
100
AcDbLine
 10
79.48891
 20
38.85
 30
0.0
 11
141.90077
 21
38.85
 31
0.0
  0
LINE
  5
165
330
1F
100
AcDbEntity
  8
0
  6
CONTINUOUS
 62
     7
100
AcDbLine
 10
141.418293
 20
46.85
 30
0.0
 11
79.48891
 21
46.85
 31
0.0
  0
LINE
  5
166
330
1F
100
AcDbEntity
  8
0
  6
CONTINUOUS
 62
     7
100
AcDbLine
 10
34.488923
 20
36.25
 30
0.0
 11
51.088921
 21
36.25
 31
0.0
  0
LINE
  5
167
330
1F
100
AcDbEntity
  8
0
  6
CONTINUOUS
 62
     7
100
AcDbLine
 10
51.088921
 20
55.05
 30
0.0
 11
34.488923
 21
55.05
 31
0.0
  0
LINE
  5
168
330
1F
100
AcDbEntity
  8
0
  6
CONTINUOUS
 62
     7
100
AcDbLine
 10
34.488923
 20
55.05
 30
0.0
 11
34.28892
 21
54.85
 31
0.0
  0
LINE
  5
169
330
1F
100
AcDbEntity
  8
0
  6
CONTINUOUS
 62
     7
100
AcDbLine
 10
34.28892
 20
36.45
 30
0.0
 11
34.488923
 21
36.25
 31
0.0
  0
LINE
  5
16A
330
1F
100
AcDbEntity
  8
0
  6
CONTINUOUS
 62
     7
100
AcDbLine
 10
51.088921
 20
36.25
 30
0.0
 11
51.28891
 21
36.45
 31
0.0
  0
LINE
  5
16B
330
1F
100
AcDbEntity
  8
0
  6
CONTINUOUS
 62
     7
100
AcDbLine
 10
51.28891
 20
54.85
 30
0.0
 11
51.088921
 21
55.05
 31
0.0
  0
LINE
  5
16C
330
1F
100
AcDbEntity
  8
0
  6
CONTINUOUS
 62
     7
100
AcDbLine
 10
79.48891
 20
48.85
 30
0.0
 11
78.988917
 21
49.35
 31
0.0
  0
LINE
  5
16D
330
1F
100
AcDbEntity
  8
0
  6
CONTINUOUS
 62
     7
100
AcDbLine
 10
78.988917
 20
36.35
 30
0.0
 11
79.48891
 21
36.85
 31
0.0
  0
LINE
  5
16E
330
1F
100
AcDbEntity
  8
0
  6
CONTINUOUS
 62
     7
100
AcDbLine
 10
75.68892
 20
49.35
 30
0.0
 11
75.488917
 21
49.15
 31
0.0
  0
LINE
  5
16F
330
1F
100
AcDbEntity
  8
0
  6
CONTINUOUS
 62
     7
100
AcDbLine
 10
75.488917
 20
36.549999
 30
0.0
 11
75.68892
 21
36.35
 31
0.0
  0
LINE
  5
170
330
1F
100
AcDbEntity
  8
0
  6
CONTINUOUS
 62
     7
100
AcDbLine
 10
78.988917
 20
49.35
 30
0.0
 11
75.68892
 21
49.35
 31
0.0
  0
LINE
  5
171
330
1F
100
AcDbEntity
  8
0
  6
CONTINUOUS
 62
     7
100
AcDbLine
 10
75.68892
 20
36.35
 30
0.0
 11
78.988917
 21
36.35
 31
0.0
  0
LINE
  5
172
330
1F
100
AcDbEntity
  8
0
  6
CONTINUOUS
 62
     7
100
AcDbLine
 10
74.988923
 20
36.35
 30
0.0
 11
75.488917
 21
36.85
 31
0.0
  0
LINE
  5
173
330
1F
100
AcDbEntity
  8
0
  6
CONTINUOUS
 62
     7
100
AcDbLine
 10
75.488917
 20
48.85
 30
0.0
 11
74.988923
 21
49.35
 31
0.0
  0
LINE
  5
174
330
1F
100
AcDbEntity
  8
0
  6
CONTINUOUS
 62
     7
100
AcDbLine
 10
66.488914
 20
36.35
 30
0.0
 11
74.988923
 21
36.35
 31
0.0
  0
LINE
  5
175
330
1F
100
AcDbEntity
  8
0
  6
CONTINUOUS
 62
     7
100
AcDbLine
 10
74.988923
 20
49.35
 30
0.0
 11
66.488914
 21
49.35
 31
0.0
  0
LINE
  5
176
330
1F
100
AcDbEntity
  8
0
  6
CONTINUOUS
 62
     7
100
AcDbLine
 10
51.788918
 20
55.1
 30
0.0
 11
51.488913
 21
54.8
 31
0.0
  0
LINE
  5
177
330
1F
100
AcDbEntity
  8
0
  6
CONTINUOUS
 62
     7
100
AcDbLine
 10
51.488913
 20
36.5
 30
0.0
 11
51.788918
 21
36.2
 31
0.0
  0
LINE
  5
178
330
1F
100
AcDbEntity
  8
0
  6
CONTINUOUS
 62
     7
100
AcDbLine
 10
66.188909
 20
36.2
 30
0.0
 11
66.488914
 21
36.5
 31
0.0
  0
LINE
  5
179
330
1F
100
AcDbEntity
  8
0
  6
CONTINUOUS
 62
     7
100
AcDbLine
 10
66.488914
 20
54.8
 30
0.0
 11
66.188909
 21
55.1
 31
0.0
  0
LINE
  5
17A
330
1F
100
AcDbEntity
  8
0
  6
CONTINUOUS
 62
     7
100
AcDbLine
 10
51.788918
 20
36.2
 30
0.0
 11
66.188909
 21
36.2
 31
0.0
  0
LINE
  5
17B
330
1F
100
AcDbEntity
  8
0
  6
CONTINUOUS
 62
     7
100
AcDbLine
 10
66.188909
 20
55.1
 30
0.0
 11
51.788918
 21
55.1
 31
0.0
  0
LINE
  5
17C
330
1F
100
AcDbEntity
  8
0
  6
CONTINUOUS
 62
     7
100
AcDbLine
 10
51.28891
 20
38.3
 30
0.0
 11
51.488913
 21
38.3
 31
0.0
  0
LINE
  5
17D
330
1F
100
AcDbEntity
  8
0
  6
CONTINUOUS
 62
     7
100
AcDbLine
 10
51.488913
 20
53.0
 30
0.0
 11
51.28891
 21
53.0
 31
0.0
  0
LINE
  5
17E
330
1F
100
AcDbEntity
  8
0
  6
CONTINUOUS
 62
     7
100
AcDbLine
 10
68.688921
 20
52.25
 30
0.0
 11
68.688921
 21
49.75
 31
0.0
  0
LINE
  5
17F
330
1F
100
AcDbEntity
  8
0
  6
CONTINUOUS
 62
     7
100
AcDbLine
 10
68.688921
 20
54.75
 30
0.0
 11
68.688921
 21
52.25
 31
0.0
  0
LINE
  5
180
330
1F
100
AcDbEntity
  8
0
  6
CONTINUOUS
 62
     7
100
AcDbLine
 10
76.688922
 20
52.25
 30
0.0
 11
76.688922
 21
49.75
 31
0.0
  0
LINE
  5
181
330
1F
100
AcDbEntity
  8
0
  6
CONTINUOUS
 62
     7
100
AcDbLine
 10
76.688922
 20
54.75
 30
0.0
 11
76.688922
 21
52.25
 31
0.0
  0
LINE
  5
182
330
1F
100
AcDbEntity
  8
0
  6
CONTINUOUS
 62
     7
100
AcDbLine
 10
66.588915
 20
53.339725
 30
0.0
 11
68.588919
 21
53.339725
 31
0.0
  0
LINE
  5
183
330
1F
100
AcDbEntity
  8
0
  6
CONTINUOUS
 62
     7
100
AcDbLine
 10
68.588919
 20
53.339725
 30
0.0
 11
68.688921
 21
53.085165
 31
0.0
  0
LINE
  5
184
330
1F
100
AcDbEntity
  8
0
  6
CONTINUOUS
 62
     7
100
AcDbLine
 10
68.688921
 20
51.414835
 30
0.0
 11
68.588919
 21
51.160275
 31
0.0
  0
LINE
  5
185
330
1F
100
AcDbEntity
  8
0
  6
CONTINUOUS
 62
     7
100
AcDbLine
 10
66.588915
 20
51.160275
 30
0.0
 11
68.588919
 21
51.160275
 31
0.0
  0
LINE
  5
186
330
1F
100
AcDbEntity
  8
0
  6
CONTINUOUS
 62
     7
100
AcDbLine
 10
68.588919
 20
53.339725
 30
0.0
 11
68.588919
 21
54.5
 31
0.0
  0
LINE
  5
187
330
1F
100
AcDbEntity
  8
0
  6
CONTINUOUS
 62
     7
100
AcDbLine
 10
66.588915
 20
54.5
 30
0.0
 11
66.588915
 21
53.339725
 31
0.0
  0
LINE
  5
188
330
1F
100
AcDbEntity
  8
0
  6
CONTINUOUS
 62
     7
100
AcDbLine
 10
66.588915
 20
54.5
 30
0.0
 11
68.588919
 21
54.5
 31
0.0
  0
LINE
  5
189
330
1F
100
AcDbEntity
  8
0
  6
CONTINUOUS
 62
     7
100
AcDbLine
 10
66.588915
 20
51.160275
 30
0.0
 11
66.588915
 21
50.0
 31
0.0
  0
LINE
  5
18A
330
1F
100
AcDbEntity
  8
0
  6
CONTINUOUS
 62
     7
100
AcDbLine
 10
66.588915
 20
54.5
 30
0.0
 11
66.488914
 21
54.5
 31
0.0
  0
LINE
  5
18B
330
1F
100
AcDbEntity
  8
0
  6
CONTINUOUS
 62
     7
100
AcDbLine
 10
68.588919
 20
50.0
 30
0.0
 11
68.588919
 21
51.160275
 31
0.0
  0
LINE
  5
18C
330
1F
100
AcDbEntity
  8
0
  6
CONTINUOUS
 62
     7
100
AcDbLine
 10
66.588915
 20
50.0
 30
0.0
 11
68.588919
 21
50.0
 31
0.0
  0
LINE
  5
18D
330
1F
100
AcDbEntity
  8
0
  6
CONTINUOUS
 62
     7
100
AcDbLine
 10
68.688921
 20
54.5
 30
0.0
 11
68.588919
 21
54.5
 31
0.0
  0
LINE
  5
18E
330
1F
100
AcDbEntity
  8
0
  6
CONTINUOUS
 62
     7
100
AcDbLine
 10
68.588919
 20
50.0
 30
0.0
 11
68.688921
 21
50.0
 31
0.0
  0
LINE
  5
18F
330
1F
100
AcDbEntity
  8
0
  6
CONTINUOUS
 62
     7
100
AcDbLine
 10
34.28892
 20
36.45
 30
0.0
 11
34.28892
 21
54.85
 31
0.0
  0
LINE
  5
190
330
1F
100
AcDbEntity
  8
0
  6
CONTINUOUS
 62
     7
100
AcDbLine
 10
51.28891
 20
54.85
 30
0.0
 11
51.28891
 21
36.45
 31
0.0
  0
LINE
  5
191
330
1F
100
AcDbEntity
  8
0
  6
CONTINUOUS
 62
     7
100
AcDbLine
 10
75.68892
 20
46.796152
 30
0.0
 11
75.68892
 21
45.35
 31
0.0
  0
LINE
  5
192
330
1F
100
AcDbEntity
  8
0
  6
CONTINUOUS
 62
     7
100
AcDbLine
 10
75.488917
 20
44.770937
 30
0.0
 11
75.68892
 21
45.35
 31
0.0
  0
LINE
  5
193
330
1F
100
AcDbEntity
  8
0
  6
CONTINUOUS
 62
     7
100
AcDbLine
 10
75.488917
 20
44.770937
 30
0.0
 11
75.488917
 21
47.085684
 31
0.0
  0
INSERT
  5
197
330
1F
100
AcDbEntity
  8
0
100
AcDbBlockReference
  2
BLKF012
 10
0.0
 20
0.0
 30
0.0
  0
LINE
  5
1A3
330
1F
100
AcDbEntity
  8
0
  6
CONTINUOUS
 62
     7
100
AcDbLine
 10
78.988917
 20
45.35
 30
0.0
 11
78.988917
 21
46.796152
 31
0.0
  0
LINE
  5
1A4
330
1F
100
AcDbEntity
  8
0
  6
CONTINUOUS
 62
     7
100
AcDbLine
 10
75.68892
 20
45.35
 30
0.0
 11
78.988917
 21
45.35
 31
0.0
  0
LINE
  5
1A5
330
1F
100
AcDbEntity
  8
0
  6
CONTINUOUS
 62
     7
100
AcDbLine
 10
78.988917
 20
46.796152
 30
0.0
 11
75.68892
 21
46.796152
 31
0.0
  0
LINE
  5
1A6
330
1F
100
AcDbEntity
  8
0
  6
CONTINUOUS
 62
     7
100
AcDbLine
 10
79.48891
 20
48.046152
 30
0.0
 11
79.48891
 21
42.85
 31
0.0
  0
INSERT
  5
1AA
330
1F
100
AcDbEntity
  8
0
100
AcDbBlockReference
  2
BLKF013
 10
0.0
 20
0.0
 30
0.0
  0
LINE
  5
1F3
330
1F
100
AcDbEntity
  8
0
  6
CONTINUOUS
 62
     7
100
AcDbLine
 10
79.48891
 20
48.046152
 30
0.0
 11
78.988917
 21
46.796152
 31
0.0
  0
LINE
  5
1F4
330
1F
100
AcDbEntity
  8
0
  6
CONTINUOUS
 62
     7
100
AcDbLine
 10
75.68892
 20
40.35
 30
0.0
 11
75.68892
 21
38.903847
 31
0.0
  0
LINE
  5
1F5
330
1F
100
AcDbEntity
  8
0
  6
CONTINUOUS
 62
     7
100
AcDbLine
 10
78.988917
 20
40.35
 30
0.0
 11
75.68892
 21
40.35
 31
0.0
  0
LINE
  5
1F6
330
1F
100
AcDbEntity
  8
0
  6
CONTINUOUS
 62
     7
100
AcDbLine
 10
78.988917
 20
38.903847
 30
0.0
 11
78.988917
 21
40.35
 31
0.0
  0
LINE
  5
1F7
330
1F
100
AcDbEntity
  8
0
  6
CONTINUOUS
 62
     7
100
AcDbLine
 10
75.68892
 20
38.903847
 30
0.0
 11
78.988917
 21
38.903847
 31
0.0
  0
INSERT
  5
1FB
330
1F
100
AcDbEntity
  8
0
100
AcDbBlockReference
  2
BLKF014
 10
0.0
 20
0.0
 30
0.0
  0
LINE
  5
21D
330
1F
100
AcDbEntity
  8
0
  6
CONTINUOUS
 62
     7
100
AcDbLine
 10
79.48891
 20
42.85
 30
0.0
 11
79.48891
 21
37.653848
 31
0.0
  0
INSERT
  5
221
330
1F
100
AcDbEntity
  8
0
100
AcDbBlockReference
  2
BLKF015
 10
0.0
 20
0.0
 30
0.0
  0
LINE
  5
265
330
1F
100
AcDbEntity
  8
0
  6
CONTINUOUS
 62
     7
100
AcDbLine
 10
75.68892
 20
40.35
 30
0.0
 11
75.488917
 21
40.929063
 31
0.0
  0
LINE
  5
266
330
1F
100
AcDbEntity
  8
0
  6
CONTINUOUS
 62
     7
100
AcDbLine
 10
75.488917
 20
38.614316
 30
0.0
 11
75.68892
 21
38.903847
 31
0.0
  0
LINE
  5
267
330
1F
100
AcDbEntity
  8
0
  6
CONTINUOUS
 62
     7
100
AcDbLine
 10
75.488917
 20
38.614316
 30
0.0
 11
75.488917
 21
40.929063
 31
0.0
  0
LINE
  5
268
330
1F
100
AcDbEntity
  8
0
  6
CONTINUOUS
 62
     7
100
AcDbLine
 10
75.488917
 20
40.929063
 30
0.0
 11
75.488917
 21
44.770937
 31
0.0
  0
LINE
  5
269
330
1F
100
AcDbEntity
  8
0
  6
CONTINUOUS
 62
     7
100
AcDbLine
 10
75.488917
 20
49.006621
 30
0.0
 11
75.68892
 21
49.296152
 31
0.0
  0
LINE
  5
26A
330
1F
100
AcDbEntity
  8
0
  6
CONTINUOUS
 62
     7
100
AcDbLine
 10
75.68892
 20
49.296152
 30
0.0
 11
78.988917
 21
49.296152
 31
0.0
  0
INSERT
  5
26E
330
1F
100
AcDbEntity
  8
0
100
AcDbBlockReference
  2
BLKF016
 10
0.0
 20
0.0
 30
0.0
  0
LINE
  5
2B2
330
1F
100
AcDbEntity
  8
0
  6
CONTINUOUS
 62
     7
100
AcDbLine
 10
75.488917
 20
47.085684
 30
0.0
 11
75.488917
 21
49.006621
 31
0.0
  0
INSERT
  5
2B6
330
1F
100
AcDbEntity
  8
0
100
AcDbBlockReference
  2
BLKF017
 10
0.0
 20
0.0
 30
0.0
  0
LINE
  5
2C7
330
1F
100
AcDbEntity
  8
0
  6
CONTINUOUS
 62
     7
100
AcDbLine
 10
79.48891
 20
37.653848
 30
0.0
 11
78.988917
 21
36.403847
 31
0.0
  0
LINE
  5
2C8
330
1F
100
AcDbEntity
  8
0
  6
CONTINUOUS
 62
     7
100
AcDbLine
 10
78.988917
 20
36.403847
 30
0.0
 11
75.68892
 21
36.403847
 31
0.0
  0
LINE
  5
2C9
330
1F
100
AcDbEntity
  8
0
  6
CONTINUOUS
 62
     7
100
AcDbLine
 10
75.488917
 20
36.693378
 30
0.0
 11
75.488917
 21
38.614316
 31
0.0
  0
LINE
  5
2CA
330
1F
100
AcDbEntity
  8
0
  6
CONTINUOUS
 62
     7
100
AcDbLine
 10
78.988917
 20
49.296152
 30
0.0
 11
78.988917
 21
49.35
 31
0.0
  0
LINE
  5
2CB
330
1F
100
AcDbEntity
  8
0
  6
CONTINUOUS
 62
     7
100
AcDbLine
 10
79.48891
 20
48.85
 30
0.0
 11
79.48891
 21
48.046152
 31
0.0
  0
LINE
  5
2CC
330
1F
100
AcDbEntity
  8
0
  6
CONTINUOUS
 62
     7
100
AcDbLine
 10
78.988917
 20
36.35
 30
0.0
 11
78.988917
 21
36.403847
 31
0.0
  0
LINE
  5
2CD
330
1F
100
AcDbEntity
  8
0
  6
CONTINUOUS
 62
     7
100
AcDbLine
 10
79.48891
 20
37.653848
 30
0.0
 11
79.48891
 21
36.85
 31
0.0
  0
LINE
  5
2CE
330
1F
100
AcDbEntity
  8
0
  6
CONTINUOUS
 62
     7
100
AcDbLine
 10
75.68892
 20
49.35
 30
0.0
 11
75.68892
 21
49.296152
 31
0.0
  0
LINE
  5
2CF
330
1F
100
AcDbEntity
  8
0
  6
CONTINUOUS
 62
     7
100
AcDbLine
 10
75.488917
 20
49.006621
 30
0.0
 11
75.488917
 21
49.15
 31
0.0
  0
LINE
  5
2D0
330
1F
100
AcDbEntity
  8
0
  6
CONTINUOUS
 62
     7
100
AcDbLine
 10
75.68892
 20
36.403847
 30
0.0
 11
75.68892
 21
36.35
 31
0.0
  0
LINE
  5
2D1
330
1F
100
AcDbEntity
  8
0
  6
CONTINUOUS
 62
     7
100
AcDbLine
 10
75.488917
 20
36.549999
 30
0.0
 11
75.488917
 21
36.693378
 31
0.0
  0
INSERT
  5
2D5
330
1F
100
AcDbEntity
  8
0
100
AcDbBlockReference
  2
BLKF018
 10
0.0
 20
0.0
 30
0.0
  0
LINE
  5
2F7
330
1F
100
AcDbEntity
  8
0
  6
CONTINUOUS
 62
     7
100
AcDbLine
 10
74.988923
 20
45.35
 30
0.0
 11
74.988923
 21
46.796152
 31
0.0
  0
LINE
  5
2F8
330
1F
100
AcDbEntity
  8
0
  6
CONTINUOUS
 62
     7
100
AcDbLine
 10
75.488917
 20
48.046152
 30
0.0
 11
74.988923
 21
46.796152
 31
0.0
  0
LINE
  5
2F9
330
1F
100
AcDbEntity
  8
0
  6
CONTINUOUS
 62
     7
100
AcDbLine
 10
66.488914
 20
45.35
 30
0.0
 11
74.988923
 21
45.35
 31
0.0
  0
LINE
  5
2FA
330
1F
100
AcDbEntity
  8
0
  6
CONTINUOUS
 62
     7
100
AcDbLine
 10
74.988923
 20
46.796152
 30
0.0
 11
66.488914
 21
46.796152
 31
0.0
  0
LINE
  5
2FB
330
1F
100
AcDbEntity
  8
0
  6
CONTINUOUS
 62
     7
100
AcDbLine
 10
74.988923
 20
38.903847
 30
0.0
 11
74.988923
 21
40.35
 31
0.0
  0
INSERT
  5
2FF
330
1F
100
AcDbEntity
  8
0
100
AcDbBlockReference
  2
BLKF019
 10
0.0
 20
0.0
 30
0.0
  0
INSERT
  5
32B
330
1F
100
AcDbEntity
  8
0
100
AcDbBlockReference
  2
BLKF020
 10
0.0
 20
0.0
 30
0.0
  0
LINE
  5
36F
330
1F
100
AcDbEntity
  8
0
  6
CONTINUOUS
 62
     7
100
AcDbLine
 10
74.988923
 20
40.35
 30
0.0
 11
66.488914
 21
40.35
 31
0.0
  0
LINE
  5
370
330
1F
100
AcDbEntity
  8
0
  6
CONTINUOUS
 62
     7
100
AcDbLine
 10
66.488914
 20
38.903847
 30
0.0
 11
74.988923
 21
38.903847
 31
0.0
  0
LINE
  5
371
330
1F
100
AcDbEntity
  8
0
  6
CONTINUOUS
 62
     7
100
AcDbLine
 10
74.988923
 20
36.403847
 30
0.0
 11
66.488914
 21
36.403847
 31
0.0
  0
LINE
  5
372
330
1F
100
AcDbEntity
  8
0
  6
CONTINUOUS
 62
     7
100
AcDbLine
 10
75.488917
 20
37.653848
 30
0.0
 11
74.988923
 21
36.403847
 31
0.0
  0
LINE
  5
373
330
1F
100
AcDbEntity
  8
0
  6
CONTINUOUS
 62
     7
100
AcDbLine
 10
66.488914
 20
36.403847
 30
0.0
 11
66.488914
 21
36.568907
 31
0.0
  0
LINE
  5
374
330
1F
100
AcDbEntity
  8
0
  6
CONTINUOUS
 62
     7
100
AcDbLine
 10
66.488914
 20
49.296152
 30
0.0
 11
74.988923
 21
49.296152
 31
0.0
  0
INSERT
  5
378
330
1F
100
AcDbEntity
  8
0
100
AcDbBlockReference
  2
BLKF021
 10
0.0
 20
0.0
 30
0.0
  0
LINE
  5
3BC
330
1F
100
AcDbEntity
  8
0
  6
CONTINUOUS
 62
     7
100
AcDbLine
 10
74.988923
 20
36.35
 30
0.0
 11
74.988923
 21
36.403847
 31
0.0
  0
LINE
  5
3BD
330
1F
100
AcDbEntity
  8
0
  6
CONTINUOUS
 62
     7
100
AcDbLine
 10
74.988923
 20
49.296152
 30
0.0
 11
74.988923
 21
49.35
 31
0.0
  0
LINE
  5
3BE
330
1F
100
AcDbEntity
  8
0
  6
CONTINUOUS
 62
     7
100
AcDbLine
 10
66.488914
 20
36.403847
 30
0.0
 11
66.488914
 21
36.35
 31
0.0
  0
LINE
  5
3BF
330
1F
100
AcDbEntity
  8
0
  6
CONTINUOUS
 62
     7
100
AcDbLine
 10
51.488913
 20
36.5
 30
0.0
 11
51.488913
 21
54.8
 31
0.0
  0
LINE
  5
3C0
330
1F
100
AcDbEntity
  8
0
  6
CONTINUOUS
 62
     7
100
AcDbLine
 10
66.488914
 20
45.65
 30
0.0
 11
66.488914
 21
36.568907
 31
0.0
  0
LINE
  5
3C1
330
1F
100
AcDbEntity
  8
0
  6
CONTINUOUS
 62
     7
100
AcDbLine
 10
66.488914
 20
54.8
 30
0.0
 11
66.488914
 21
45.65
 31
0.0
  0
INSERT
  5
3C5
330
1F
100
AcDbEntity
  8
0
100
AcDbBlockReference
  2
BLKF022
 10
0.0
 20
0.0
 30
0.0
  0
INSERT
  5
3D3
330
1F
100
AcDbEntity
  8
0
100
AcDbBlockReference
  2
BLKF023
 10
0.0
 20
0.0
 30
0.0
  0
INSERT
  5
3E1
330
1F
100
AcDbEntity
  8
0
100
AcDbBlockReference
  2
BLKF024
 10
0.0
 20
0.0
 30
0.0
  0
ARC
  5
3ED
330
1F
100
AcDbEntity
  8
0
  6
DASHED
 62
     7
100
AcDbCircle
 10
151.978291
 20
50.9
 30
0.0
 40
11.31000024843961
100
AcDbArc
 50
157.380135
 51
202.619865
  0
ARC
  5
3EE
330
1F
100
AcDbEntity
  8
0
  6
DASHED
 62
     7
100
AcDbCircle
 10
131.09829
 20
42.2
 30
0.0
 40
11.31000024843961
100
AcDbArc
 50
-22.619865
 51
22.619865
  0
ARC
  5
3EF
330
1F
100
AcDbEntity
  8
0
  6
DASHED
 62
     7
100
AcDbCircle
 10
153.978291
 20
50.9
 30
0.0
 40
11.31000024843961
100
AcDbArc
 50
157.380135
 51
202.619865
  0
ARC
  5
3F0
330
1F
100
AcDbEntity
  8
0
  6
DASHED
 62
     7
100
AcDbCircle
 10
133.09829
 20
42.2
 30
0.0
 40
11.3100002484396
100
AcDbArc
 50
-22.619865
 51
22.619865
  0
ENDSEC
  0
SECTION
  2
OBJECTS
  0
DICTIONARY
  5
C
330
0
100
AcDbDictionary
  3
ACAD_GROUP
350
D
  3
ACAD_LAYOUT
350
1A
  3
ACAD_MLINESTYLE
350
17
  3
ACAD_PLOTSETTINGS
350
19
1001
ACAD
1000
TREAT_AS_HARD
1070
     0
  0
DICTIONARY
  5
D
102
{ACAD_REACTORS
330
C
102
}
330
C
100
AcDbDictionary
1001
ACAD
1000
TREAT_AS_HARD
1070
     0
  0
DICTIONARY
  5
1A
102
{ACAD_REACTORS
330
C
102
}
330
C
100
AcDbDictionary
1001
ACAD
1000
TREAT_AS_HARD
1070
     0
  0
DICTIONARY
  5
17
102
{ACAD_REACTORS
330
C
102
}
330
C
100
AcDbDictionary
  3
STANDARD
350
18
1001
ACAD
1000
TREAT_AS_HARD
1070
     0
  0
DICTIONARY
  5
19
102
{ACAD_REACTORS
330
C
102
}
330
C
100
AcDbDictionary
1001
ACAD
1000
TREAT_AS_HARD
1070
     0
  0
MLINESTYLE
  5
18
102
{ACAD_REACTORS
330
17
102
}
330
17
100
AcDbMlineStyle
  2
Standard
 70
     0
  3

 62
   256
 51
90.0
 52
90.0
 71
     2
 49
0.5
 62
   256
  6
BYLAYER
 49
-0.5
 62
   256
  6
BYLAYER
  0
ENDSEC
  0
EOF
